  0
SECTION
  2
HEADER
  9
$ACADVER
  1
AC1014
  9
$ACADMAINTVER
 70
     0
  9
$DWGCODEPAGE
  3
ANSI_932
  9
$INSBASE
 10
0.0
 20
0.0
 30
0.0
  9
$EXTMIN
 10
0.0
 20
0.0
 30
0.0
  9
$EXTMAX
 10
395.0
 20
275.0
 30
0.0
  9
$LIMMIN
 10
0.0
 20
0.0
  9
$LIMMAX
 10
420.0
 20
297.0
  9
$ORTHOMODE
 70
     0
  9
$REGENMODE
 70
     1
  9
$FILLMODE
 70
     1
  9
$QTEXTMODE
 70
     0
  9
$MIRRTEXT
 70
     0
  9
$DRAGMODE
 70
     2
  9
$LTSCALE
 40
7.0
  9
$OSMODE
 70
    45
  9
$ATTMODE
 70
     1
  9
$TEXTSIZE
 40
3.0
  9
$TRACEWID
 40
0.05
  9
$TEXTSTYLE
  7
STANDARD
  9
$CLAYER
  8
0
  9
$CELTYPE
  6
BYLAYER
  9
$CECOLOR
 62
   256
  9
$CELTSCALE
 40
1.0
  9
$DELOBJ
 70
     1
  9
$DISPSILH
 70
     0
  9
$DIMSCALE
 40
1.0
  9
$DIMASZ
 40
2.0
  9
$DIMEXO
 40
2.0
  9
$DIMDLI
 40
0.0
  9
$DIMRND
 40
0.0
  9
$DIMDLE
 40
0.0
  9
$DIMEXE
 40
0.0
  9
$DIMTP
 40
0.0
  9
$DIMTM
 40
0.0
  9
$DIMTXT
 40
3.0
  9
$DIMCEN
 40
0.0
  9
$DIMTSZ
 40
0.0
  9
$DIMTOL
 70
     0
  9
$DIMLIM
 70
     0
  9
$DIMTIH
 70
     0
  9
$DIMTOH
 70
     0
  9
$DIMSE1
 70
     0
  9
$DIMSE2
 70
     0
  9
$DIMTAD
 70
     1
  9
$DIMZIN
 70
     8
  9
$DIMBLK
  1

  9
$DIMASO
 70
     1
  9
$DIMSHO
 70
     0
  9
$DIMPOST
  1

  9
$DIMAPOST
  1

  9
$DIMALT
 70
     0
  9
$DIMALTD
 70
     2
  9
$DIMALTF
 40
25.4
  9
$DIMLFAC
 40
1.0
  9
$DIMTOFL
 70
     1
  9
$DIMTVP
 40
1.0
  9
$DIMTIX
 70
     1
  9
$DIMSOXD
 70
     1
  9
$DIMSAH
 70
     0
  9
$DIMBLK1
  1

  9
$DIMBLK2
  1

  9
$DIMSTYLE
  2
STANDARD
  9
$DIMCLRD
 70
     0
  9
$DIMCLRE
 70
     0
  9
$DIMCLRT
 70
   256
  9
$DIMTFAC
 40
1.0
  9
$DIMGAP
 40
0.0
  9
$DIMJUST
 70
     0
  9
$DIMSD1
 70
     0
  9
$DIMSD2
 70
     0
  9
$DIMTOLJ
 70
     1
  9
$DIMTZIN
 70
     8
  9
$DIMALTZ
 70
     8
  9
$DIMALTTZ
 70
     8
  9
$DIMFIT
 70
     5
  9
$DIMUPT
 70
     0
  9
$DIMUNIT
 70
     2
  9
$DIMDEC
 70
     8
  9
$DIMTDEC
 70
     8
  9
$DIMALTU
 70
     2
  9
$DIMALTTD
 70
     2
  9
$DIMTXSTY
  7
STANDARD
  9
$DIMAUNIT
 70
     0
  9
$LUNITS
 70
     2
  9
$LUPREC
 70
     8
  9
$SKETCHINC
 40
0.1
  9
$FILLETRAD
 40
0.8
  9
$AUNITS
 70
     0
  9
$AUPREC
 70
     8
  9
$MENU
  1
ACAD
  9
$ELEVATION
 40
0.0
  9
$PELEVATION
 40
0.0
  9
$THICKNESS
 40
0.0
  9
$LIMCHECK
 70
     0
  9
$BLIPMODE
 70
     0
  9
$CHAMFERA
 40
1.0
  9
$CHAMFERB
 40
1.0
  9
$CHAMFERC
 40
0.0
  9
$CHAMFERD
 40
0.0
  9
$SKPOLY
 70
     0
  9
$TDCREATE
 40
2450991.621319444
  9
$TDUPDATE
 40
2452779.694847546
  9
$TDINDWG
 40
0.5793598148
  9
$TDUSRTIMER
 40
0.5793598148
  9
$USRTIMER
 70
     1
  9
$ANGBASE
 50
0.0
  9
$ANGDIR
 70
     0
  9
$PDMODE
 70
     0
  9
$PDSIZE
 40
0.0
  9
$PLINEWID
 40
0.0
  9
$COORDS
 70
     2
  9
$SPLFRAME
 70
     0
  9
$SPLINETYPE
 70
     6
  9
$SPLINESEGS
 70
     8
  9
$ATTDIA
 70
     0
  9
$ATTREQ
 70
     1
  9
$HANDLING
 70
     1
  9
$HANDSEED
  5
2E9
  9
$SURFTAB1
 70
     6
  9
$SURFTAB2
 70
     6
  9
$SURFTYPE
 70
     6
  9
$SURFU
 70
     6
  9
$SURFV
 70
     6
  9
$UCSNAME
  2

  9
$UCSORG
 10
0.0
 20
0.0
 30
0.0
  9
$UCSXDIR
 10
1.0
 20
0.0
 30
0.0
  9
$UCSYDIR
 10
0.0
 20
1.0
 30
0.0
  9
$PUCSNAME
  2

  9
$PUCSORG
 10
0.0
 20
0.0
 30
0.0
  9
$PUCSXDIR
 10
1.0
 20
0.0
 30
0.0
  9
$PUCSYDIR
 10
0.0
 20
1.0
 30
0.0
  9
$USERI1
 70
     0
  9
$USERI2
 70
     0
  9
$USERI3
 70
     0
  9
$USERI4
 70
     0
  9
$USERI5
 70
     0
  9
$USERR1
 40
0.0
  9
$USERR2
 40
0.0
  9
$USERR3
 40
0.0
  9
$USERR4
 40
0.0
  9
$USERR5
 40
0.0
  9
$WORLDVIEW
 70
     1
  9
$SHADEDGE
 70
     3
  9
$SHADEDIF
 70
    70
  9
$TILEMODE
 70
     1
  9
$MAXACTVP
 70
    16
  9
$PINSBASE
 10
0.0
 20
0.0
 30
0.0
  9
$PLIMCHECK
 70
     0
  9
$PEXTMIN
 10
1.000000E+20
 20
1.000000E+20
 30
1.000000E+20
  9
$PEXTMAX
 10
-1.000000E+20
 20
-1.000000E+20
 30
-1.000000E+20
  9
$PLIMMIN
 10
0.0
 20
0.0
  9
$PLIMMAX
 10
12.0
 20
9.0
  9
$UNITMODE
 70
     0
  9
$VISRETAIN
 70
     0
  9
$PLINEGEN
 70
     0
  9
$PSLTSCALE
 70
     0
  9
$TREEDEPTH
 70
  3020
  9
$PICKSTYLE
 70
     1
  9
$CMLSTYLE
  2
STANDARD
  9
$CMLJUST
 70
     0
  9
$CMLSCALE
 40
1.0
  9
$PROXYGRAPHICS
 70
     1
  9
$MEASUREMENT
 70
     0
  0
ENDSEC
  0
SECTION
  2
CLASSES
  0
CLASS
  1
LWPOLYLINE
  2
AcDbPolyline
  3
"AutoCAD"
 90
        0
280
     0
281
     1
  0
CLASS
  1
ACDBDICTIONARYWDFLT
  2
AcDbDictionaryWithDefault
  3
AutoCAD 2000
 90
        0
280
     1
281
     0
  0
CLASS
  1
ACDBPLACEHOLDER
  2
AcDbPlaceHolder
  3
AutoCAD 2000
 90
        0
280
     1
281
     0
  0
CLASS
  1
LAYOUT
  2
AcDbLayout
  3
AutoCAD 2000
 90
        0
280
     1
281
     0
  0
CLASS
  1
DICTIONARYVAR
  2
AcDbDictionaryVar
  3
"AutoCAD"
 90
        0
280
     0
281
     0
  0
CLASS
  1
LONG_TRANSACTION
  2
AcDbLongTransaction
  3
AutoCAD 2000
 90
        0
280
     1
281
     0
  0
CLASS
  1
LWPOLYLINE
  2
AcDbPolyline
  3
"AutoCAD"
 90
        0
280
     0
281
     1
  0
CLASS
  1
HATCH
  2
AcDbHatch
  3
"ACAD_SEDONA"
 90
        0
280
     0
281
     1
  0
CLASS
  1
XRECORD
  2
AcDbXrecord
  3
"<Built In>"
 90
        0
280
     0
281
     0
  0
CLASS
  1
LONG_TRANSACTION
  2
AcDbLongTransaction
  3
AutoCAD 2000
 90
        0
280
     1
281
     0
  0
CLASS
  1
LWPOLYLINE
  2
AcDbPolyline
  3
"AutoCAD"
 90
        0
280
     0
281
     1
  0
CLASS
  1
HATCH
  2
AcDbHatch
  3
"ACAD_SEDONA"
 90
        0
280
     0
281
     1
  0
CLASS
  1
XRECORD
  2
AcDbXrecord
  3
"<Built In>"
 90
        0
280
     0
281
     0
  0
CLASS
  1
LONG_TRANSACTION
  2
AcDbLongTransaction
  3
AutoCAD 2000
 90
        0
280
     1
281
     0
  0
CLASS
  1
LWPOLYLINE
  2
AcDbPolyline
  3
"AutoCAD"
 90
        0
280
     0
281
     1
  0
CLASS
  1
HATCH
  2
AcDbHatch
  3
"ACAD_SEDONA"
 90
        0
280
     0
281
     1
  0
CLASS
  1
XRECORD
  2
AcDbXrecord
  3
"<Built In>"
 90
        0
280
     0
281
     0
  0
CLASS
  1
LONG_TRANSACTION
  2
AcDbLongTransaction
  3
AutoCAD 2000
 90
        0
280
     1
281
     0
  0
CLASS
  1
LWPOLYLINE
  2
AcDbPolyline
  3
"AutoCAD"
 90
        0
280
     0
281
     1
  0
CLASS
  1
HATCH
  2
AcDbHatch
  3
"ACAD_SEDONA"
 90
        0
280
     0
281
     1
  0
CLASS
  1
XRECORD
  2
AcDbXrecord
  3
"<Built In>"
 90
        0
280
     0
281
     0
  0
CLASS
  1
LONG_TRANSACTION
  2
AcDbLongTransaction
  3
AutoCAD 2000
 90
        0
280
     1
281
     0
  0
CLASS
  1
LWPOLYLINE
  2
AcDbPolyline
  3
"AutoCAD"
 90
        0
280
     0
281
     1
  0
CLASS
  1
HATCH
  2
AcDbHatch
  3
"ACAD_SEDONA"
 90
        0
280
     0
281
     1
  0
CLASS
  1
XRECORD
  2
AcDbXrecord
  3
"<Built In>"
 90
        0
280
     0
281
     0
  0
CLASS
  1
LONG_TRANSACTION
  2
AcDbLongTransaction
  3
AutoCAD 2000
 90
        0
280
     1
281
     0
  0
CLASS
  1
LWPOLYLINE
  2
AcDbPolyline
  3
"AutoCAD"
 90
        0
280
     0
281
     1
  0
CLASS
  1
HATCH
  2
AcDbHatch
  3
"ACAD_SEDONA"
 90
        0
280
     0
281
     1
  0
CLASS
  1
XRECORD
  2
AcDbXrecord
  3
"<Built In>"
 90
        0
280
     0
281
     0
  0
CLASS
  1
LONG_TRANSACTION
  2
AcDbLongTransaction
  3
AutoCAD 2000
 90
        0
280
     1
281
     0
  0
CLASS
  1
LWPOLYLINE
  2
AcDbPolyline
  3
"AutoCAD"
 90
        0
280
     0
281
     1
  0
CLASS
  1
HATCH
  2
AcDbHatch
  3
"ACAD_SEDONA"
 90
        0
280
     0
281
     1
  0
CLASS
  1
XRECORD
  2
AcDbXrecord
  3
"<Built In>"
 90
        0
280
     0
281
     0
  0
CLASS
  1
LONG_TRANSACTION
  2
AcDbLongTransaction
  3
AutoCAD 2000
 90
        0
280
     1
281
     0
  0
CLASS
  1
LWPOLYLINE
  2
AcDbPolyline
  3
"AutoCAD"
 90
        0
280
     0
281
     1
  0
CLASS
  1
HATCH
  2
AcDbHatch
  3
"ACAD_SEDONA"
 90
        0
280
     0
281
     1
  0
CLASS
  1
XRECORD
  2
AcDbXrecord
  3
"<Built In>"
 90
        0
280
     0
281
     0
  0
CLASS
  1
LONG_TRANSACTION
  2
AcDbLongTransaction
  3
AutoCAD 2000
 90
        0
280
     1
281
     0
  0
CLASS
  1
LWPOLYLINE
  2
AcDbPolyline
  3
"AutoCAD"
 90
        0
280
     0
281
     1
  0
CLASS
  1
HATCH
  2
AcDbHatch
  3
"ACAD_SEDONA"
 90
        0
280
     0
281
     1
  0
CLASS
  1
XRECORD
  2
AcDbXrecord
  3
"<Built In>"
 90
        0
280
     0
281
     0
  0
CLASS
  1
LONG_TRANSACTION
  2
AcDbLongTransaction
  3
AutoCAD 2000
 90
        0
280
     1
281
     0
  0
CLASS
  1
LWPOLYLINE
  2
AcDbPolyline
  3
"AutoCAD"
 90
        0
280
     0
281
     1
  0
CLASS
  1
HATCH
  2
AcDbHatch
  3
"ACAD_SEDONA"
 90
        0
280
     0
281
     1
  0
CLASS
  1
XRECORD
  2
AcDbXrecord
  3
"<Built In>"
 90
        0
280
     0
281
     0
  0
CLASS
  1
LONG_TRANSACTION
  2
AcDbLongTransaction
  3
AutoCAD 2000
 90
        0
280
     1
281
     0
  0
CLASS
  1
LWPOLYLINE
  2
AcDbPolyline
  3
"AutoCAD"
 90
        0
280
     0
281
     1
  0
CLASS
  1
HATCH
  2
AcDbHatch
  3
"ACAD_SEDONA"
 90
        0
280
     0
281
     1
  0
CLASS
  1
XRECORD
  2
AcDbXrecord
  3
"<Built In>"
 90
        0
280
     0
281
     0
  0
CLASS
  1
LONG_TRANSACTION
  2
AcDbLongTransaction
  3
AutoCAD 2000
 90
        0
280
     1
281
     0
  0
CLASS
  1
LWPOLYLINE
  2
AcDbPolyline
  3
"AutoCAD"
 90
        0
280
     0
281
     1
  0
CLASS
  1
HATCH
  2
AcDbHatch
  3
"ACAD_SEDONA"
 90
        0
280
     0
281
     1
  0
CLASS
  1
XRECORD
  2
AcDbXrecord
  3
"<Built In>"
 90
        0
280
     0
281
     0
  0
CLASS
  1
LONG_TRANSACTION
  2
AcDbLongTransaction
  3
AutoCAD 2000
 90
        0
280
     1
281
     0
  0
CLASS
  1
LWPOLYLINE
  2
AcDbPolyline
  3
"AutoCAD"
 90
        0
280
     0
281
     1
  0
CLASS
  1
HATCH
  2
AcDbHatch
  3
"ACAD_SEDONA"
 90
        0
280
     0
281
     1
  0
CLASS
  1
XRECORD
  2
AcDbXrecord
  3
"<Built In>"
 90
        0
280
     0
281
     0
  0
CLASS
  1
LONG_TRANSACTION
  2
AcDbLongTransaction
  3
AutoCAD 2000
 90
        0
280
     1
281
     0
  0
CLASS
  1
LWPOLYLINE
  2
AcDbPolyline
  3
"AutoCAD"
 90
        0
280
     0
281
     1
  0
CLASS
  1
HATCH
  2
AcDbHatch
  3
"ACAD_SEDONA"
 90
        0
280
     0
281
     1
  0
CLASS
  1
XRECORD
  2
AcDbXrecord
  3
"<Built In>"
 90
        0
280
     0
281
     0
  0
CLASS
  1
LONG_TRANSACTION
  2
AcDbLongTransaction
  3
AutoCAD 2000
 90
        0
280
     1
281
     0
  0
CLASS
  1
LWPOLYLINE
  2
AcDbPolyline
  3
"AutoCAD"
 90
        0
280
     0
281
     1
  0
CLASS
  1
HATCH
  2
AcDbHatch
  3
"ACAD_SEDONA"
 90
        0
280
     0
281
     1
  0
CLASS
  1
XRECORD
  2
AcDbXrecord
  3
"<Built In>"
 90
        0
280
     0
281
     0
  0
CLASS
  1
LONG_TRANSACTION
  2
AcDbLongTransaction
  3
AutoCAD 2000
 90
        0
280
     1
281
     0
  0
CLASS
  1
LWPOLYLINE
  2
AcDbPolyline
  3
"AutoCAD"
 90
        0
280
     0
281
     1
  0
CLASS
  1
HATCH
  2
AcDbHatch
  3
"ACAD_SEDONA"
 90
        0
280
     0
281
     1
  0
CLASS
  1
XRECORD
  2
AcDbXrecord
  3
"<Built In>"
 90
        0
280
     0
281
     0
  0
CLASS
  1
LONG_TRANSACTION
  2
AcDbLongTransaction
  3
AutoCAD 2000
 90
        0
280
     1
281
     0
  0
CLASS
  1
LWPOLYLINE
  2
AcDbPolyline
  3
"AutoCAD"
 90
        0
280
     0
281
     1
  0
CLASS
  1
HATCH
  2
AcDbHatch
  3
"ACAD_SEDONA"
 90
        0
280
     0
281
     1
  0
CLASS
  1
XRECORD
  2
AcDbXrecord
  3
"<Built In>"
 90
        0
280
     0
281
     0
  0
CLASS
  1
LONG_TRANSACTION
  2
AcDbLongTransaction
  3
AutoCAD 2000
 90
        0
280
     1
281
     0
  0
CLASS
  1
LWPOLYLINE
  2
AcDbPolyline
  3
"AutoCAD"
 90
        0
280
     0
281
     1
  0
CLASS
  1
HATCH
  2
AcDbHatch
  3
"ACAD_SEDONA"
 90
        0
280
     0
281
     1
  0
CLASS
  1
XRECORD
  2
AcDbXrecord
  3
"<Built In>"
 90
        0
280
     0
281
     0
  0
CLASS
  1
LONG_TRANSACTION
  2
AcDbLongTransaction
  3
AutoCAD 2000
 90
        0
280
     1
281
     0
  0
CLASS
  1
LWPOLYLINE
  2
AcDbPolyline
  3
"AutoCAD"
 90
        0
280
     0
281
     1
  0
CLASS
  1
HATCH
  2
AcDbHatch
  3
"ACAD_SEDONA"
 90
        0
280
     0
281
     1
  0
CLASS
  1
XRECORD
  2
AcDbXrecord
  3
"<Built In>"
 90
        0
280
     0
281
     0
  0
CLASS
  1
LONG_TRANSACTION
  2
AcDbLongTransaction
  3
AutoCAD 2000
 90
        0
280
     1
281
     0
  0
CLASS
  1
LWPOLYLINE
  2
AcDbPolyline
  3
"AutoCAD"
 90
        0
280
     0
281
     1
  0
CLASS
  1
HATCH
  2
AcDbHatch
  3
"ACAD_SEDONA"
 90
        0
280
     0
281
     1
  0
CLASS
  1
XRECORD
  2
AcDbXrecord
  3
"<Built In>"
 90
        0
280
     0
281
     0
  0
CLASS
  1
LONG_TRANSACTION
  2
AcDbLongTransaction
  3
AutoCAD 2000
 90
        0
280
     1
281
     0
  0
CLASS
  1
LWPOLYLINE
  2
AcDbPolyline
  3
"AutoCAD"
 90
        0
280
     0
281
     1
  0
CLASS
  1
HATCH
  2
AcDbHatch
  3
"ACAD_SEDONA"
 90
        0
280
     0
281
     1
  0
CLASS
  1
XRECORD
  2
AcDbXrecord
  3
"<Built In>"
 90
        0
280
     0
281
     0
  0
CLASS
  1
LONG_TRANSACTION
  2
AcDbLongTransaction
  3
AutoCAD 2000
 90
        0
280
     1
281
     0
  0
CLASS
  1
LWPOLYLINE
  2
AcDbPolyline
  3
"AutoCAD"
 90
        0
280
     0
281
     1
  0
CLASS
  1
HATCH
  2
AcDbHatch
  3
"ACAD_SEDONA"
 90
        0
280
     0
281
     1
  0
CLASS
  1
XRECORD
  2
AcDbXrecord
  3
"<Built In>"
 90
        0
280
     0
281
     0
  0
CLASS
  1
LONG_TRANSACTION
  2
AcDbLongTransaction
  3
AutoCAD 2000
 90
        0
280
     1
281
     0
  0
CLASS
  1
LWPOLYLINE
  2
AcDbPolyline
  3
"AutoCAD"
 90
        0
280
     0
281
     1
  0
CLASS
  1
HATCH
  2
AcDbHatch
  3
"ACAD_SEDONA"
 90
        0
280
     0
281
     1
  0
CLASS
  1
XRECORD
  2
AcDbXrecord
  3
"<Built In>"
 90
        0
280
     0
281
     0
  0
CLASS
  1
LONG_TRANSACTION
  2
AcDbLongTransaction
  3
AutoCAD 2000
 90
        0
280
     1
281
     0
  0
CLASS
  1
LWPOLYLINE
  2
AcDbPolyline
  3
"AutoCAD"
 90
        0
280
     0
281
     1
  0
CLASS
  1
HATCH
  2
AcDbHatch
  3
"ACAD_SEDONA"
 90
        0
280
     0
281
     1
  0
CLASS
  1
XRECORD
  2
AcDbXrecord
  3
"<Built In>"
 90
        0
280
     0
281
     0
  0
CLASS
  1
LONG_TRANSACTION
  2
AcDbLongTransaction
  3
AutoCAD 2000
 90
        0
280
     1
281
     0
  0
CLASS
  1
LWPOLYLINE
  2
AcDbPolyline
  3
"AutoCAD"
 90
        0
280
     0
281
     1
  0
CLASS
  1
HATCH
  2
AcDbHatch
  3
"ACAD_SEDONA"
 90
        0
280
     0
281
     1
  0
CLASS
  1
XRECORD
  2
AcDbXrecord
  3
"<Built In>"
 90
        0
280
     0
281
     0
  0
CLASS
  1
LONG_TRANSACTION
  2
AcDbLongTransaction
  3
AutoCAD 2000
 90
        0
280
     1
281
     0
  0
CLASS
  1
LWPOLYLINE
  2
AcDbPolyline
  3
"AutoCAD"
 90
        0
280
     0
281
     1
  0
CLASS
  1
HATCH
  2
AcDbHatch
  3
"ACAD_SEDONA"
 90
        0
280
     0
281
     1
  0
CLASS
  1
XRECORD
  2
AcDbXrecord
  3
"<Built In>"
 90
        0
280
     0
281
     0
  0
CLASS
  1
LONG_TRANSACTION
  2
AcDbLongTransaction
  3
AutoCAD 2000
 90
        0
280
     1
281
     0
  0
CLASS
  1
LWPOLYLINE
  2
AcDbPolyline
  3
"AutoCAD"
 90
        0
280
     0
281
     1
  0
CLASS
  1
HATCH
  2
AcDbHatch
  3
"ACAD_SEDONA"
 90
        0
280
     0
281
     1
  0
CLASS
  1
XRECORD
  2
AcDbXrecord
  3
"<Built In>"
 90
        0
280
     0
281
     0
  0
CLASS
  1
LONG_TRANSACTION
  2
AcDbLongTransaction
  3
AutoCAD 2000
 90
        0
280
     1
281
     0
  0
CLASS
  1
LWPOLYLINE
  2
AcDbPolyline
  3
"AutoCAD"
 90
        0
280
     0
281
     1
  0
CLASS
  1
HATCH
  2
AcDbHatch
  3
"ACAD_SEDONA"
 90
        0
280
     0
281
     1
  0
CLASS
  1
XRECORD
  2
AcDbXrecord
  3
"<Built In>"
 90
        0
280
     0
281
     0
  0
ENDSEC
  0
SECTION
  2
TABLES
  0
TABLE
  2
VPORT
  5
16
100
AcDbSymbolTable
 70
     2
  0
VPORT
  5
2E8
100
AcDbSymbolTableRecord
100
AcDbViewportTableRecord
  2
*ACTIVE
 70
     0
 10
0.0
 20
0.0
 11
1.0
 21
1.0
 12
209.996801
 22
159.085059
 13
0.0
 23
0.0
 14
10.0
 24
10.0
 15
10.0
 25
10.0
 16
0.0
 26
0.0
 36
1.0
 17
0.0
 27
0.0
 37
0.0
 40
643.070302
 41
1.670886
 42
50.0
 43
0.0
 44
0.0
 50
0.0
 51
0.0
 71
     0
 72
   100
 73
     1
 74
     0
 75
     0
 76
     0
 77
     0
 78
     0
  0
ENDTAB
  0
TABLE
  2
LTYPE
  5
11
100
AcDbSymbolTable
 70
     4
  0
LTYPE
  5
12
100
AcDbSymbolTableRecord
100
AcDbLinetypeTableRecord
  2
BYBLOCK
 70
     0
  3

 72
    65
 73
     0
 40
0.0
  0
LTYPE
  5
13
100
AcDbSymbolTableRecord
100
AcDbLinetypeTableRecord
  2
BYLAYER
 70
     0
  3

 72
    65
 73
     0
 40
0.0
  0
LTYPE
  5
7
100
AcDbSymbolTableRecord
100
AcDbLinetypeTableRecord
  2
CONTINUOUS
 70
     0
  3
Solid line
 72
    65
 73
     0
 40
0.0
  0
LTYPE
  5
45
100
AcDbSymbolTableRecord
100
AcDbLinetypeTableRecord
  2
CENTER
 70
     0
  3
Center ____ _ ____ _ ____ _ ____ _ ____ _ ____
 72
    65
 73
     4
 40
2.0
 49
1.25
 74
     0
 49
-0.25
 74
     0
 49
0.25
 74
     0
 49
-0.25
 74
     0
  0
LTYPE
  5
54
100
AcDbSymbolTableRecord
100
AcDbLinetypeTableRecord
  2
HIDDEN
 70
     0
  3
__ __ __ __ __ __ __ __ __ __ __ __ __ __ __ __
 72
    65
 73
     2
 40
0.375
 49
0.25
 74
     0
 49
-0.125
 74
     0
  0
LTYPE
  5
46
100
AcDbSymbolTableRecord
100
AcDbLinetypeTableRecord
  2
CENTER2
 70
     0
  3
___ _ ___ _ ___ _ ___ _ ___ _ ___ _ ___ _ ___ _
 72
    65
 73
     4
 40
1.125
 49
0.75
 74
     0
 49
-0.125
 74
     0
 49
0.125
 74
     0
 49
-0.125
 74
     0
  0
ENDTAB
  0
TABLE
  2
LAYER
  5
E
100
AcDbSymbolTable
 70
    12
  0
LAYER
  5
6
100
AcDbSymbolTableRecord
100
AcDbLayerTableRecord
  2
0
 70
     0
 62
     7
  6
CONTINUOUS
  0
LAYER
  5
26
100
AcDbSymbolTableRecord
100
AcDbLayerTableRecord
  2
WAKU
 70
     0
 62
     7
  6
CONTINUOUS
  0
LAYER
  5
30
100
AcDbSymbolTableRecord
100
AcDbLayerTableRecord
  2
ADM
 70
     0
 62
     4
  6
CONTINUOUS
  0
LAYER
  5
44
100
AcDbSymbolTableRecord
100
AcDbLayerTableRecord
  2
ACL
 70
     0
 62
     1
  6
CENTER
  0
LAYER
  5
2D
100
AcDbSymbolTableRecord
100
AcDbLayerTableRecord
  2
ALS
 70
     0
 62
     4
  6
CONTINUOUS
  0
LAYER
  5
7C
100
AcDbSymbolTableRecord
100
AcDbLayerTableRecord
  2
AHJ
 70
     0
 62
     1
  6
CONTINUOUS
  0
LAYER
  5
64
102
{ACAD_XDICTIONARY
360
65
102
}
100
AcDbSymbolTableRecord
100
AcDbLayerTableRecord
  2
DEFPOINTS
 70
     0
 62
     7
  6
CONTINUOUS
  0
LAYER
  5
50
100
AcDbSymbolTableRecord
100
AcDbLayerTableRecord
  2
1MOKU
 70
     0
 62
     7
  6
CONTINUOUS
  0
LAYER
  5
38
100
AcDbSymbolTableRecord
100
AcDbLayerTableRecord
  2
1AL
 70
     0
 62
     3
  6
CONTINUOUS
  0
LAYER
  5
34
100
AcDbSymbolTableRecord
100
AcDbLayerTableRecord
  2
1BUHIN
 70
     0
 62
     4
  6
CONTINUOUS
  0
LAYER
  5
59
100
AcDbSymbolTableRecord
100
AcDbLayerTableRecord
  2
1BIS
 70
     0
 62
     2
  6
CONTINUOUS
  0
LAYER
  5
29A
100
AcDbSymbolTableRecord
100
AcDbLayerTableRecord
  2
1GASKET
 70
     0
 62
     2
  6
CONTINUOUS
  0
ENDTAB
  0
TABLE
  2
STYLE
  5
F
100
AcDbSymbolTable
 70
     1
  0
STYLE
  5
10
100
AcDbSymbolTableRecord
100
AcDbTextStyleTableRecord
  2
STANDARD
 70
     0
 40
0.0
 41
1.0
 50
0.0
 71
     0
 42
3.0
  3
romans
  4
bigfont
  0
ENDTAB
  0
TABLE
  2
VIEW
  5
14
100
AcDbSymbolTable
 70
     0
  0
ENDTAB
  0
TABLE
  2
UCS
  5
15
100
AcDbSymbolTable
 70
     0
  0
ENDTAB
  0
TABLE
  2
APPID
  5
18
100
AcDbSymbolTable
 70
     1
  0
APPID
  5
19
100
AcDbSymbolTableRecord
100
AcDbRegAppTableRecord
  2
ACAD
 70
     0
  0
ENDTAB
  0
TABLE
  2
DIMSTYLE
  5
1A
100
AcDbSymbolTable
 70
     1
  0
DIMSTYLE
105
22
102
{ACAD_XDICTIONARY
360
23
102
}
100
AcDbSymbolTableRecord
100
AcDbDimStyleTableRecord
  2
STANDARD
 70
     0
  3

  4

  5

  6

  7

 40
1.0
 41
2.0
 42
2.0
 43
0.0
 44
0.0
 45
0.0
 46
0.0
 47
0.0
 48
0.0
140
3.0
141
0.0
142
0.0
143
25.4
144
1.0
145
1.0
146
1.0
147
0.0
 71
     0
 72
     0
 73
     0
 74
     0
 75
     0
 76
     0
 77
     1
 78
     8
170
     0
171
     2
172
     1
173
     0
174
     1
175
     1
176
     0
177
     0
178
   256
270
     2
271
     8
272
     8
273
     2
274
     2
340
10
275
     0
280
     0
281
     0
282
     0
283
     1
284
     8
285
     8
286
     8
287
     5
288
     0
  0
ENDTAB
  0
TABLE
  2
BLOCK_RECORD
  5
1
100
AcDbSymbolTable
 70
     0
  0
BLOCK_RECORD
  5
2
102
{ACAD_XDICTIONARY
360
3
102
}
100
AcDbSymbolTableRecord
100
AcDbBlockTableRecord
  2
*MODEL_SPACE
  0
BLOCK_RECORD
  5
9
102
{ACAD_XDICTIONARY
360
A
102
}
100
AcDbSymbolTableRecord
100
AcDbBlockTableRecord
  2
*PAPER_SPACE
  0
ENDTAB
  0
ENDSEC
  0
SECTION
  2
BLOCKS
  0
BLOCK
  5
5
100
AcDbEntity
  8
0
100
AcDbBlockBegin
  2
*MODEL_SPACE
 70
     0
 10
0.0
 20
0.0
 30
0.0
  3
*MODEL_SPACE
  1

  0
ENDBLK
  5
8
100
AcDbEntity
  8
0
100
AcDbBlockEnd
  0
BLOCK
  5
C
100
AcDbEntity
 67
     1
  8
0
100
AcDbBlockBegin
  2
*PAPER_SPACE
 70
     0
 10
0.0
 20
0.0
 30
0.0
  3
*PAPER_SPACE
  1

  0
ENDBLK
  5
D
100
AcDbEntity
 67
     1
  8
0
100
AcDbBlockEnd
  0
ENDSEC
  0
SECTION
  2
ENTITIES
  0
TEXT
  5
25
100
AcDbEntity
  8
WAKU
 62
     2
100
AcDbText
 10
205.568684
 20
13.108234
 30
0.0
 40
2.0
  1
品　種
 72
     1
 11
208.902017
 21
13.108234
 31
0.0
100
AcDbText
  0
TEXT
  5
27
100
AcDbEntity
  8
WAKU
 62
     2
100
AcDbText
 10
205.568684
 20
5.108234
 30
0.0
 40
2.0
  1
図面名
 72
     1
 11
208.902017
 21
5.108234
 31
0.0
100
AcDbText
  0
LINE
  5
28
100
AcDbEntity
  8
WAKU
100
AcDbLine
 10
395.0
 20
275.0
 30
0.0
 11
0.0
 21
275.0
 31
0.0
  0
LINE
  5
29
100
AcDbEntity
  8
WAKU
100
AcDbLine
 10
0.0
 20
0.0
 30
0.0
 11
395.0
 21
0.0
 31
0.0
  0
LINE
  5
2A
100
AcDbEntity
  8
WAKU
100
AcDbLine
 10
0.0
 20
16.0
 30
0.0
 11
395.0
 21
16.0
 31
0.0
  0
LINE
  5
2B
100
AcDbEntity
  8
WAKU
 62
     1
100
AcDbLine
 10
204.5
 20
8.0
 30
0.0
 11
384.0
 21
8.0
 31
0.0
  0
LINE
  5
2C
100
AcDbEntity
  8
ALS
 62
     0
100
AcDbLine
 10
232.229555
 20
248.169249
 30
0.0
 11
102.630058
 21
196.333149
 31
0.0
1001
ACAD
1000
RTLwPs
1070
   158
  0
LINE
  5
2E
100
AcDbEntity
  8
ALS
 62
     0
100
AcDbLine
 10
144.256742
 20
33.018559
 30
0.0
 11
320.28053
 21
103.423051
 31
0.0
1001
ACAD
1000
RTLwPs
1070
   158
  0
LINE
  5
2F
100
AcDbEntity
  8
ADM
 62
     0
100
AcDbLine
 10
312.667158
 20
108.994098
 30
0.0
 11
141.285799
 21
40.446445
 31
0.0
1001
ACAD
1000
RTLwPs
1070
   158
  0
LINE
  5
31
100
AcDbEntity
  8
ALS
100
AcDbLine
 10
217.165092
 20
99.250488
 30
0.0
 11
130.545927
 21
64.605294
 31
0.0
  0
LINE
  5
32
100
AcDbEntity
  8
ALS
100
AcDbLine
 10
196.739861
 20
150.317208
 30
0.0
 11
275.002654
 21
181.620092
 31
0.0
  0
LINE
  5
33
100
AcDbEntity
  8
1BUHIN
100
AcDbLine
 10
182.627884
 20
185.59967
 30
0.0
 11
256.248247
 21
215.045714
 31
0.0
  0
LINE
  5
35
100
AcDbEntity
  8
1BUHIN
100
AcDbLine
 10
181.885148
 20
187.456641
 30
0.0
 11
255.505512
 21
216.902686
 31
0.0
  0
LINE
  5
36
100
AcDbEntity
  8
ALS
100
AcDbLine
 10
181.142412
 20
189.313613
 30
0.0
 11
246.406403
 21
215.417347
 31
0.0
  0
LINE
  5
37
100
AcDbEntity
  8
1AL
100
AcDbLine
 10
105.624178
 20
151.148844
 30
0.0
 11
111.792448
 21
135.727069
 31
0.0
  0
LINE
  5
39
100
AcDbEntity
  8
1AL
100
AcDbLine
 10
104.460501
 20
151.365496
 30
0.0
 11
110.863962
 21
135.355702
 31
0.0
  0
LINE
  5
3A
100
AcDbEntity
  8
1AL
100
AcDbLine
 10
86.081093
 20
148.84783
 30
0.0
 11
87.837964
 21
144.45534
 31
0.0
  0
LINE
  5
3B
100
AcDbEntity
  8
1AL
100
AcDbLine
 10
87.24477
 20
148.631178
 30
0.0
 11
88.395082
 21
145.755193
 31
0.0
  0
LINE
  5
3C
100
AcDbEntity
  8
1AL
100
AcDbLine
 10
68.340026
 20
147.426945
 30
0.0
 11
103.697334
 21
152.270293
 31
0.0
  0
LINE
  5
3D
100
AcDbEntity
  8
1AL
100
AcDbLine
 10
68.59739
 20
146.452861
 30
0.0
 11
86.081093
 21
148.84783
 31
0.0
  0
LINE
  5
3E
100
AcDbEntity
  8
ALS
 62
     0
100
AcDbLine
 10
53.670003
 20
143.713399
 30
0.0
 11
41.832838
 21
173.308423
 31
0.0
1001
ACAD
1000
RTLwPs
1070
   158
  0
LINE
  5
3F
100
AcDbEntity
  8
ALS
 62
     0
100
AcDbLine
 10
53.670003
 20
143.713399
 30
0.0
 11
44.803781
 21
165.880536
 31
0.0
1001
ACAD
1000
RTLwPs
1070
   158
  0
LINE
  5
40
100
AcDbEntity
  8
ALS
 62
     0
100
AcDbLine
 10
52.459813
 20
146.73909
 30
0.0
 11
47.774723
 21
158.452649
 31
0.0
1001
ACAD
1000
RTLwPs
1070
   158
  0
LINE
  5
41
100
AcDbEntity
  8
ADM
 62
     0
100
AcDbLine
 10
65.554569
 20
146.312841
 30
0.0
 11
61.887496
 21
155.481177
 31
0.0
1001
ACAD
1000
RTLwPs
1070
   158
  0
LINE
  5
42
100
AcDbEntity
  8
WAKU
100
AcDbLine
 10
0.0
 20
0.0
 30
0.0
 11
0.0
 21
275.0
 31
0.0
  0
LINE
  5
43
100
AcDbEntity
  8
ACL
  6
CENTER2
100
AcDbLine
 10
126.157112
 20
153.858283
 30
0.0
 11
103.004329
 21
144.59783
 31
0.0
  0
LINE
  5
47
100
AcDbEntity
  8
ACL
  6
CENTER2
100
AcDbLine
 10
163.664851
 20
140.674209
 30
0.0
 11
159.864137
 21
150.176673
 31
0.0
  0
LINE
  5
48
100
AcDbEntity
  8
ACL
  6
CENTER2
100
AcDbLine
 10
62.487407
 20
148.595797
 30
0.0
 11
75.882083
 21
115.106717
 31
0.0
  0
LINE
  5
49
100
AcDbEntity
  8
ALS
100
AcDbLine
 10
196.739861
 20
150.317208
 30
0.0
 11
118.477069
 21
119.014325
 31
0.0
  0
LINE
  5
4A
100
AcDbEntity
  8
ACL
  6
CENTER2
100
AcDbLine
 10
73.554314
 20
153.23953
 30
0.0
 11
121.93306
 21
32.284036
 31
0.0
  0
LINE
  5
4B
100
AcDbEntity
  8
WAKU
 62
     1
100
AcDbLine
 10
0.0
 20
12.8
 30
0.0
 11
146.0
 21
12.8
 31
0.0
  0
LINE
  5
4C
100
AcDbEntity
  8
WAKU
 62
     1
100
AcDbLine
 10
0.0
 20
9.6
 30
0.0
 11
146.0
 21
9.6
 31
0.0
  0
LINE
  5
4D
100
AcDbEntity
  8
WAKU
 62
     1
100
AcDbLine
 10
0.0
 20
6.4
 30
0.0
 11
146.0
 21
6.4
 31
0.0
  0
LINE
  5
4E
100
AcDbEntity
  8
WAKU
 62
     1
100
AcDbLine
 10
0.0
 20
3.2
 30
0.0
 11
146.0
 21
3.2
 31
0.0
  0
LINE
  5
4F
100
AcDbEntity
  8
1MOKU
100
AcDbLine
 10
97.122822
 20
148.169018
 30
0.0
 11
59.983389
 21
133.314305
 31
0.0
  0
LINE
  5
51
100
AcDbEntity
  8
1MOKU
100
AcDbLine
 10
59.983389
 20
133.314305
 30
0.0
 11
93.406494
 21
49.75058
 31
0.0
  0
LINE
  5
52
100
AcDbEntity
  8
ALS
100
AcDbLine
 10
59.983389
 20
133.314305
 30
0.0
 11
130.545927
 21
64.605294
 31
0.0
  0
LINE
  5
53
100
AcDbEntity
  8
1BUHIN
  6
HIDDEN
 48
0.5
100
AcDbLine
 10
32.85951
 20
132.966844
 30
0.0
 11
51.970261
 21
140.6106
 31
0.0
  0
LINE
  5
55
100
AcDbEntity
  8
1BUHIN
  6
HIDDEN
 48
0.5
100
AcDbLine
 10
19.258441
 20
128.16117
 30
0.0
 11
52.154522
 21
141.318664
 31
0.0
  0
LINE
  5
56
100
AcDbEntity
  8
1MOKU
100
AcDbLine
 10
65.925937
 20
145.384355
 30
0.0
 11
20.518719
 21
127.222764
 31
0.0
  0
LINE
  5
57
100
AcDbEntity
  8
1MOKU
100
AcDbLine
 10
69.268247
 20
137.027983
 30
0.0
 11
22.293905
 21
118.239586
 31
0.0
  0
ARC
  5
58
100
AcDbEntity
  8
1BIS
100
AcDbCircle
 10
17.279032
 20
124.187353
 30
0.0
 40
4.439515
100
AcDbArc
 50
338.549168
 51
80.911078
  0
ARC
  5
5A
100
AcDbEntity
  8
1BIS
100
AcDbCircle
 10
25.183062
 20
121.081705
 30
0.0
 40
4.052761
100
AcDbArc
 50
158.549168
 51
251.734011
  0
LINE
  5
5B
100
AcDbEntity
  8
1AL
100
AcDbLine
 10
54.412739
 20
141.856427
 30
0.0
 11
68.340026
 21
147.426945
 31
0.0
  0
LINE
  5
5C
100
AcDbEntity
  8
1AL
100
AcDbLine
 10
55.712592
 20
141.299309
 30
0.0
 11
68.59739
 21
146.452861
 31
0.0
  0
LINE
  5
5D
100
AcDbEntity
  8
1BUHIN
  6
HIDDEN
 48
0.5
100
AcDbLine
 10
54.716289
 20
140.478548
 30
0.0
 11
67.031159
 21
145.404145
 31
0.0
  0
LINE
  5
5E
100
AcDbEntity
  8
1BUHIN
  6
HIDDEN
 48
0.5
100
AcDbLine
 10
54.90055
 20
141.186612
 30
0.0
 11
66.826017
 21
145.956459
 31
0.0
  0
LINE
  5
5F
100
AcDbEntity
  8
1BUHIN
  6
HIDDEN
 48
0.5
100
AcDbLine
 10
52.362564
 20
140.662125
 30
0.0
 11
54.323985
 21
140.427022
 31
0.0
  0
LINE
  5
60
100
AcDbEntity
  8
1BUHIN
  6
HIDDEN
 48
0.5
100
AcDbLine
 10
52.546826
 20
141.37019
 30
0.0
 11
54.508246
 21
141.135087
 31
0.0
  0
ARC
  5
61
100
AcDbEntity
  8
ALS
100
AcDbCircle
 10
52.267355
 20
139.867811
 30
0.0
 40
0.8
100
AcDbArc
 50
83.164927
 51
111.8
  0
ARC
  5
62
100
AcDbEntity
  8
ALS
100
AcDbCircle
 10
52.451617
 20
140.575875
 30
0.0
 40
0.8
100
AcDbArc
 50
83.164927
 51
111.8
  0
POINT
  5
63
100
AcDbEntity
  8
DEFPOINTS
 62
     0
100
AcDbPoint
 10
53.202549
 20
144.882118
 30
0.0
  0
LINE
  5
67
100
AcDbEntity
  8
1AL
100
AcDbLine
 10
54.412739
 20
141.856427
 30
0.0
 11
54.969791
 21
140.463698
 31
0.0
  0
LINE
  5
68
100
AcDbEntity
  8
1AL
100
AcDbLine
 10
54.969791
 20
140.463698
 30
0.0
 11
55.898276
 21
140.835066
 31
0.0
  0
LINE
  5
69
100
AcDbEntity
  8
1AL
100
AcDbLine
 10
55.712592
 20
141.299309
 30
0.0
 11
55.898276
 21
140.835066
 31
0.0
  0
POINT
  5
6A
100
AcDbEntity
  8
DEFPOINTS
 62
     0
100
AcDbPoint
 10
54.412739
 20
141.856427
 30
0.0
  0
POINT
  5
6B
100
AcDbEntity
  8
DEFPOINTS
 62
     0
100
AcDbPoint
 10
54.412739
 20
141.856427
 30
0.0
  0
ARC
  5
6C
100
AcDbEntity
  8
ALS
 48
0.5
100
AcDbCircle
 10
54.419194
 20
141.221336
 30
0.0
 40
0.8
100
AcDbArc
 50
263.164927
 51
291.8
  0
ARC
  5
6D
100
AcDbEntity
  8
ALS
 48
0.5
100
AcDbCircle
 10
54.603456
 20
141.929401
 30
0.0
 40
0.8
100
AcDbArc
 50
263.164927
 51
291.8
  0
LINE
  5
6E
100
AcDbEntity
  8
1MOKU
100
AcDbLine
 10
65.925937
 20
145.384355
 30
0.0
 11
69.268247
 21
137.027983
 31
0.0
  0
POINT
  5
6F
100
AcDbEntity
  8
DEFPOINTS
 62
     0
100
AcDbPoint
 10
66.297304
 20
144.455869
 30
0.0
  0
ARC
  5
70
100
AcDbEntity
  8
1BUHIN
  6
HIDDEN
 48
0.5
100
AcDbCircle
 10
67.328254
 20
144.661356
 30
0.0
 40
0.8
100
AcDbArc
 50
75.446025
 51
111.8
  0
ARC
  5
71
100
AcDbEntity
  8
1BUHIN
  6
HIDDEN
 48
0.5
100
AcDbCircle
 10
67.123111
 20
145.21367
 30
0.0
 40
0.8
100
AcDbArc
 50
75.446025
 51
111.8
  0
LINE
  5
72
100
AcDbEntity
  8
1BUHIN
  6
HIDDEN
 48
0.5
100
AcDbLine
 10
67.529287
 20
145.435685
 30
0.0
 11
68.960309
 21
145.064159
 31
0.0
  0
LINE
  5
73
100
AcDbEntity
  8
1BUHIN
  6
HIDDEN
 48
0.5
100
AcDbLine
 10
67.324145
 20
145.987999
 30
0.0
 11
69.069987
 21
145.534738
 31
0.0
  0
LINE
  5
74
100
AcDbEntity
  8
ADM
 62
     0
100
AcDbLine
 10
110.863432
 20
113.815042
 30
0.0
 11
137.832012
 21
46.388781
 31
0.0
1001
ACAD
1000
RTLwPs
1070
   158
  0
LINE
  5
75
100
AcDbEntity
  8
ADM
 62
     0
100
AcDbLine
 10
119.219804
 20
117.157353
 30
0.0
 11
146.188385
 21
49.731092
 31
0.0
1001
ACAD
1000
RTLwPs
1070
   158
  0
LINE
  5
76
100
AcDbEntity
  8
ALS
 62
     0
100
AcDbLine
 10
131.288663
 20
62.748322
 30
0.0
 11
143.773898
 21
31.533008
 31
0.0
1001
ACAD
1000
RTLwPs
1070
   158
  0
LINE
  5
77
100
AcDbEntity
  8
ADM
 62
     0
100
AcDbLine
 10
116.433949
 20
99.887755
 30
0.0
 11
140.802955
 21
38.960895
 31
0.0
1001
ACAD
1000
RTLwPs
1070
   158
  0
LINE
  5
78
100
AcDbEntity
  8
1MOKU
100
AcDbLine
 10
130.545927
 20
64.605294
 30
0.0
 11
93.406494
 21
49.75058
 31
0.0
  0
LINE
  5
79
100
AcDbEntity
  8
ALS
100
AcDbLine
 10
97.122822
 20
148.169018
 30
0.0
 11
93.406494
 21
49.75058
 31
0.0
  0
LINE
  5
7A
100
AcDbEntity
  8
ADM
 62
     0
100
AcDbLine
 10
144.814257
 20
50.473907
 30
0.0
 11
138.314857
 21
47.874332
 31
0.0
1001
ACAD
1000
RTLwPs
1070
   158
  0
ARC
  5
7B
100
AcDbEntity
  8
AHJ
  6
BYBLOCK
 62
     0
100
AcDbCircle
 10
143.328256
 20
32.647191
 30
0.0
 40
0.25
100
AcDbArc
 50
201.8
 51
21.8
  0
ARC
  5
7D
100
AcDbEntity
  8
AHJ
  6
BYBLOCK
 62
     0
100
AcDbCircle
 10
143.328256
 20
32.647191
 30
0.0
 40
0.25
100
AcDbArc
 50
21.8
 51
201.8
  0
LINE
  5
7E
100
AcDbEntity
  8
AHJ
  6
BYBLOCK
 62
     0
100
AcDbLine
 10
143.792499
 20
32.832875
 30
0.0
 11
144.256742
 21
33.018559
 31
0.0
  0
ARC
  5
7F
100
AcDbEntity
  8
AHJ
  6
BYBLOCK
 62
     0
100
AcDbCircle
 10
140.357313
 20
40.075078
 30
0.0
 40
0.25
100
AcDbArc
 50
201.8
 51
21.8
  0
ARC
  5
80
100
AcDbEntity
  8
AHJ
  6
BYBLOCK
 62
     0
100
AcDbCircle
 10
140.357313
 20
40.075078
 30
0.0
 40
0.25
100
AcDbArc
 50
21.8
 51
201.8
  0
LINE
  5
81
100
AcDbEntity
  8
AHJ
  6
BYBLOCK
 62
     0
100
AcDbLine
 10
140.821556
 20
40.260762
 30
0.0
 11
141.285799
 21
40.446445
 31
0.0
  0
POINT
  5
82
100
AcDbEntity
  8
DEFPOINTS
 62
     0
100
AcDbPoint
 10
140.357313
 20
40.075078
 30
0.0
  0
ARC
  5
83
100
AcDbEntity
  8
AHJ
  6
BYBLOCK
 62
     0
100
AcDbCircle
 10
137.386371
 20
47.502964
 30
0.0
 40
0.25
100
AcDbArc
 50
201.8
 51
21.8
  0
ARC
  5
84
100
AcDbEntity
  8
AHJ
  6
BYBLOCK
 62
     0
100
AcDbCircle
 10
137.386371
 20
47.502964
 30
0.0
 40
0.25
100
AcDbArc
 50
21.8
 51
201.8
  0
LINE
  5
85
100
AcDbEntity
  8
AHJ
  6
BYBLOCK
 62
     0
100
AcDbLine
 10
137.850614
 20
47.688648
 30
0.0
 11
138.314857
 21
47.874332
 31
0.0
  0
POINT
  5
86
100
AcDbEntity
  8
DEFPOINTS
 62
     0
100
AcDbPoint
 10
137.386371
 20
47.502964
 30
0.0
  0
TEXT
  5
87
100
AcDbEntity
  8
0
 62
     0
100
AcDbText
 10
139.933101
 20
49.598606
 30
0.0
 40
3.0
  1
9
 50
21.8
100
AcDbText
1001
ACAD
1000
MTEXTBEGIN
1070
    73
1070
     1
1070
    44
1040
1.0
1070
    74
1070
     0
1000
MTEXTEND
  0
LINE
  5
88
100
AcDbEntity
  8
WAKU
 62
     3
100
AcDbLine
 10
204.5
 20
0.0
 30
0.0
 11
204.5
 21
16.0
 31
0.0
  0
TEXT
  5
89
100
AcDbEntity
  8
WAKU
 62
     4
100
AcDbText
 10
181.312611
 20
9.01284
 30
0.0
 40
2.2
  1
硝子建材事業本部
 72
     1
 11
191.579277
 21
9.01284
 31
0.0
100
AcDbText
  0
LINE
  5
8A
100
AcDbEntity
  8
ALS
 62
     0
100
AcDbLine
 10
155.983333
 20
8.884801
 30
0.0
 11
156.421616
 21
9.323084
 31
0.0
  0
LINE
  5
8B
100
AcDbEntity
  8
ALS
100
AcDbLine
 10
155.691652
 20
8.884801
 30
0.0
 11
156.50035
 21
9.6935
 31
0.0
  0
LINE
  5
8C
100
AcDbEntity
  8
ALS
 62
     0
100
AcDbLine
 10
155.39997
 20
8.884801
 30
0.0
 11
156.34377
 21
9.828601
 31
0.0
  0
LINE
  5
8D
100
AcDbEntity
  8
ALS
100
AcDbLine
 10
156.328456
 20
8.884801
 30
0.0
 11
156.529067
 21
9.828601
 31
0.0
  0
LINE
  5
8E
100
AcDbEntity
  8
ALS
 62
     0
100
AcDbLine
 10
154.154949
 20
9.098188
 30
0.0
 11
155.07905
 21
10.022289
 31
0.0
  0
LINE
  5
8F
100
AcDbEntity
  8
ALS
 62
     0
100
AcDbLine
 10
154.313729
 20
8.965287
 30
0.0
 11
155.177044
 21
9.828601
 31
0.0
  0
LINE
  5
90
100
AcDbEntity
  8
ALS
 62
     0
100
AcDbLine
 10
153.067871
 20
8.886155
 30
0.0
 11
153.889405
 21
9.707688
 31
0.0
  0
LINE
  5
91
100
AcDbEntity
  8
ALS
 62
     0
100
AcDbLine
 10
152.483155
 20
8.884801
 30
0.0
 11
153.941755
 21
10.343401
 31
0.0
  0
LINE
  5
92
100
AcDbEntity
  8
ALS
 62
     0
100
AcDbLine
 10
152.191473
 20
8.884801
 30
0.0
 11
153.650073
 21
10.343401
 31
0.0
  0
LINE
  5
93
100
AcDbEntity
  8
ALS
 62
     0
100
AcDbLine
 10
151.899791
 20
8.884801
 30
0.0
 11
152.843591
 21
9.828601
 31
0.0
  0
LINE
  5
94
100
AcDbEntity
  8
ALS
 62
     0
100
AcDbLine
 10
151.637891
 20
8.914582
 30
0.0
 11
152.55191
 21
9.828601
 31
0.0
  0
LINE
  5
95
100
AcDbEntity
  8
ALS
 62
     0
100
AcDbLine
 10
151.448679
 20
9.017052
 30
0.0
 11
152.260457
 21
9.82883
 31
0.0
  0
LINE
  5
96
100
AcDbEntity
  8
ALS
 62
     0
100
AcDbLine
 10
151.312179
 20
9.172233
 30
0.0
 11
152.212656
 21
10.07271
 31
0.0
  0
ARC
  5
97
100
AcDbEntity
  8
ALS
100
AcDbCircle
 10
154.614064
 20
9.485401
 30
0.0
 40
0.6006
100
AcDbArc
 50
168.0
 51
270.0
  0
ARC
  5
98
100
AcDbEntity
  8
ALS
100
AcDbCircle
 10
153.0197
 20
9.742801
 30
0.0
 40
0.858
100
AcDbArc
 50
270.0
 51
348.0
  0
LINE
  5
99
100
AcDbEntity
  8
ALS
 62
     0
100
AcDbLine
 10
147.739595
 20
9.099828
 30
0.0
 11
148.4782
 21
9.838433
 31
0.0
  0
LINE
  5
9A
100
AcDbEntity
  8
ALS
 62
     0
100
AcDbLine
 10
148.399613
 20
8.884802
 30
0.0
 11
149.638182
 21
10.123371
 31
0.0
  0
LINE
  5
9B
100
AcDbEntity
  8
ALS
 62
     0
100
AcDbLine
 10
148.781361
 20
8.974868
 30
0.0
 11
149.176553
 21
9.370059
 31
0.0
  0
LINE
  5
9C
100
AcDbEntity
  8
ALS
 62
     0
100
AcDbLine
 10
149.61058
 20
9.220724
 30
0.0
 11
150.695867
 21
10.306011
 31
0.0
  0
LINE
  5
9D
100
AcDbEntity
  8
ALS
 62
     0
100
AcDbLine
 10
149.700678
 20
9.01914
 30
0.0
 11
150.617133
 21
9.935595
 31
0.0
  0
LINE
  5
9E
100
AcDbEntity
  8
ALS
 62
     0
100
AcDbLine
 10
149.87623
 20
8.903011
 30
0.0
 11
150.801821
 21
9.828601
 31
0.0
  0
LINE
  5
9F
100
AcDbEntity
  8
ALS
 62
     0
100
AcDbLine
 10
150.149702
 20
8.884801
 30
0.0
 11
151.093502
 21
9.828601
 31
0.0
  0
LINE
  5
A0
100
AcDbEntity
  8
ALS
100
AcDbLine
 10
147.69389
 20
8.884801
 30
0.0
 11
147.894501
 21
9.828601
 31
0.0
  0
ARC
  5
A1
100
AcDbEntity
  8
ALS
100
AcDbCircle
 10
148.398683
 20
9.742801
 30
0.0
 40
0.858
100
AcDbArc
 50
270.0
 51
328.5
  0
ARC
  5
A2
100
AcDbEntity
  8
ALS
100
AcDbCircle
 10
149.993406
 20
9.270901
 30
0.0
 40
0.3861
100
AcDbArc
 50
168.0
 51
270.0
  0
LINE
  5
A3
100
AcDbEntity
  8
ALS
 62
     0
100
AcDbLine
 10
150.441384
 20
8.884801
 30
0.0
 11
151.25618
 21
9.699598
 31
0.0
  0
LINE
  5
A4
100
AcDbEntity
  8
ALS
 62
     0
100
AcDbLine
 10
150.733065
 20
8.884801
 30
0.0
 11
151.177446
 21
9.329182
 31
0.0
  0
ARC
  5
A5
100
AcDbEntity
  8
ALS
100
AcDbCircle
 10
151.824669
 20
9.485401
 30
0.0
 40
0.6006
100
AcDbArc
 50
168.0
 51
270.0
  0
LINE
  5
A6
100
AcDbEntity
  8
ALS
100
AcDbLine
 10
151.283601
 20
9.828601
 30
0.0
 11
151.08299
 21
8.884801
 31
0.0
  0
LINE
  5
A7
100
AcDbEntity
  8
ALS
 62
     0
100
AcDbLine
 10
147.81625
 20
8.884801
 30
0.0
 11
150.64765
 21
11.716201
 31
0.0
  0
LINE
  5
A8
100
AcDbEntity
  8
ALS
 62
     0
100
AcDbLine
 10
148.107931
 20
8.884801
 30
0.0
 11
150.939331
 21
11.716201
 31
0.0
  0
LINE
  5
A9
100
AcDbEntity
  8
ALS
 62
     0
100
AcDbLine
 10
155.108288
 20
8.884801
 30
0.0
 11
156.052088
 21
9.828601
 31
0.0
  0
LINE
  5
AA
100
AcDbEntity
  8
ALS
 62
     0
100
AcDbLine
 10
154.816607
 20
8.884801
 30
0.0
 11
155.760407
 21
9.828601
 31
0.0
  0
LINE
  5
AB
100
AcDbEntity
  8
ALS
 62
     0
100
AcDbLine
 10
154.530734
 20
8.89061
 30
0.0
 11
155.468725
 21
9.828601
 31
0.0
  0
LINE
  5
AC
100
AcDbEntity
  8
ALS
 62
     0
100
AcDbLine
 10
152.774836
 20
8.884801
 30
0.0
 11
155.606236
 21
11.716201
 31
0.0
  0
LINE
  5
AD
100
AcDbEntity
  8
WAKU
 62
     3
100
AcDbLine
 10
146.0
 20
0.0
 30
0.0
 11
146.0
 21
16.0
 31
0.0
  0
TEXT
  5
AE
100
AcDbEntity
  8
WAKU
 62
     3
100
AcDbText
 10
158.053592
 20
9.038447
 30
0.0
 40
2.64
  1
旭硝子株式会社
 72
     1
 11
168.789592
 21
9.038447
 31
0.0
100
AcDbText
  0
TEXT
  5
AF
100
AcDbEntity
  8
WAKU
 62
     4
100
AcDbText
 10
149.024877
 20
4.486101
 30
0.0
 40
1.65
  1
東京都墨田区錦糸1丁目2番1号（アルカセントラル15階）
 72
     1
 11
175.008448
 21
4.486101
 31
0.0
100
AcDbText
  0
LINE
  5
B0
100
AcDbEntity
  8
ALS
100
AcDbLine
 10
151.824669
 20
8.884801
 30
0.0
 11
153.0197
 21
8.884801
 31
0.0
  0
LINE
  5
B1
100
AcDbEntity
  8
ALS
100
AcDbLine
 10
147.69389
 20
8.884801
 30
0.0
 11
148.398683
 21
8.884801
 31
0.0
  0
LINE
  5
B2
100
AcDbEntity
  8
ALS
 62
     0
100
AcDbLine
 10
151.024747
 20
8.884801
 30
0.0
 11
151.098712
 21
8.958766
 31
0.0
  0
LINE
  5
B3
100
AcDbEntity
  8
ALS
100
AcDbLine
 10
149.993406
 20
8.884801
 30
0.0
 11
151.08299
 21
8.884801
 31
0.0
  0
LINE
  5
B4
100
AcDbEntity
  8
ALS
 62
     0
100
AcDbLine
 10
156.275015
 20
8.884801
 30
0.0
 11
156.342881
 21
8.952668
 31
0.0
  0
LINE
  5
B5
100
AcDbEntity
  8
ALS
 62
     0
100
AcDbLine
 10
153.517057
 20
9.043659
 30
0.0
 11
153.718842
 21
9.245444
 31
0.0
  0
LINE
  5
B6
100
AcDbEntity
  8
ALS
100
AcDbLine
 10
154.614064
 20
8.884801
 30
0.0
 11
156.328456
 21
8.884801
 31
0.0
  0
LINE
  5
B7
100
AcDbEntity
  8
ALS
100
AcDbLine
 10
154.316327
 20
11.716201
 30
0.0
 11
152.379617
 21
11.716201
 31
0.0
  0
LINE
  5
B8
100
AcDbEntity
  8
ALS
100
AcDbLine
 10
152.266723
 20
9.828601
 30
0.0
 11
152.968458
 21
9.828601
 31
0.0
  0
LINE
  5
B9
100
AcDbEntity
  8
ALS
100
AcDbLine
 10
154.115716
 20
10.772401
 30
0.0
 11
152.500339
 21
10.772401
 31
0.0
  0
LINE
  5
BA
100
AcDbEntity
  8
ALS
 62
     0
100
AcDbLine
 10
151.413649
 20
10.440429
 30
0.0
 11
152.689421
 21
11.716201
 31
0.0
  0
LINE
  5
BB
100
AcDbEntity
  8
ALS
 62
     0
100
AcDbLine
 10
151.334914
 20
10.070014
 30
0.0
 11
152.981102
 21
11.716201
 31
0.0
  0
LINE
  5
BC
100
AcDbEntity
  8
ALS
 62
     0
100
AcDbLine
 10
151.25618
 20
9.699598
 30
0.0
 11
153.272784
 21
11.716201
 31
0.0
  0
ARC
  5
BD
100
AcDbEntity
  8
ALS
100
AcDbCircle
 10
148.407739
 20
10.086001
 30
0.0
 40
0.2574
100
AcDbArc
 50
270.0
 51
328.5
  0
LINE
  5
BE
100
AcDbEntity
  8
ALS
 62
     0
100
AcDbLine
 10
147.81833
 20
9.470244
 30
0.0
 11
148.176687
 21
9.828601
 31
0.0
  0
LINE
  5
BF
100
AcDbEntity
  8
ALS
100
AcDbLine
 10
147.894501
 20
9.828601
 30
0.0
 11
148.407739
 21
9.828601
 31
0.0
  0
LINE
  5
C0
100
AcDbEntity
  8
ALS
 62
     0
100
AcDbLine
 10
151.594805
 20
11.204949
 30
0.0
 11
152.03287
 21
11.643014
 31
0.0
  0
ARC
  5
C1
100
AcDbEntity
  8
ALS
100
AcDbCircle
 10
152.379617
 20
10.858201
 30
0.0
 40
0.858
100
AcDbArc
 50
90.0
 51
168.0
  0
LINE
  5
C2
100
AcDbEntity
  8
ALS
100
AcDbLine
 10
150.995613
 20
11.716201
 30
0.0
 11
150.189116
 21
11.716201
 31
0.0
  0
ARC
  5
C3
100
AcDbEntity
  8
ALS
 62
     4
100
AcDbCircle
 10
150.189116
 20
10.858201
 30
0.0
 40
0.858
100
AcDbArc
 50
90.0
 51
148.5
  0
LINE
  5
C4
100
AcDbEntity
  8
ALS
 62
     0
100
AcDbLine
 10
151.232629
 20
9.384365
 30
0.0
 11
152.29139
 21
10.443126
 31
0.0
  0
LINE
  5
C5
100
AcDbEntity
  8
ALS
100
AcDbLine
 10
152.182798
 20
9.93224
 30
0.0
 11
152.332489
 21
10.636479
 31
0.0
  0
ARC
  5
C6
100
AcDbEntity
  8
ALS
100
AcDbCircle
 10
152.266723
 20
9.914401
 30
0.0
 40
0.0858
100
AcDbArc
 50
168.0
 51
270.0
  0
ARC
  5
C7
100
AcDbEntity
  8
ALS
100
AcDbCircle
 10
152.500339
 20
10.600801
 30
0.0
 40
0.1716
100
AcDbArc
 50
90.0
 51
168.0
  0
LINE
  5
C8
100
AcDbEntity
  8
ALS
 62
     0
100
AcDbLine
 10
149.660657
 20
9.562483
 30
0.0
 11
150.774602
 21
10.676427
 31
0.0
  0
LINE
  5
C9
100
AcDbEntity
  8
ALS
100
AcDbLine
 10
149.130248
 20
9.294498
 30
0.0
 11
149.855128
 21
10.477393
 31
0.0
  0
LINE
  5
CA
100
AcDbEntity
  8
ALS
100
AcDbLine
 10
149.855128
 20
10.477393
 30
0.0
 11
149.615743
 21
9.351176
 31
0.0
  0
ARC
  5
CB
100
AcDbEntity
  8
ALS
100
AcDbCircle
 10
150.700345
 20
9.914401
 30
0.0
 40
0.0858
100
AcDbArc
 50
168.0
 51
270.0
  0
LINE
  5
CC
100
AcDbEntity
  8
ALS
100
AcDbLine
 10
150.700345
 20
9.828601
 30
0.0
 11
151.283601
 21
9.828601
 31
0.0
  0
LINE
  5
CD
100
AcDbEntity
  8
ALS
 62
     4
100
AcDbLine
 10
149.145705
 20
10.79762
 30
0.0
 11
150.053501
 21
11.705416
 31
0.0
  0
LINE
  5
CE
100
AcDbEntity
  8
ALS
 62
     0
100
AcDbLine
 10
148.684075
 20
10.044308
 30
0.0
 11
150.355968
 21
11.716201
 31
0.0
  0
LINE
  5
CF
100
AcDbEntity
  8
ALS
 62
     0
100
AcDbLine
 10
149.818126
 20
10.303314
 30
0.0
 11
150.93207
 21
11.417259
 31
0.0
  0
LINE
  5
D0
100
AcDbEntity
  8
ALS
 62
     0
100
AcDbLine
 10
149.739392
 20
9.932898
 30
0.0
 11
150.853336
 21
11.046843
 31
0.0
  0
LINE
  5
D1
100
AcDbEntity
  8
ALS
 62
     0
100
AcDbLine
 10
151.492383
 20
10.810845
 30
0.0
 11
152.397739
 21
11.716201
 31
0.0
  0
LINE
  5
D2
100
AcDbEntity
  8
ALS
100
AcDbLine
 10
151.237194
 20
9.610273
 30
0.0
 11
151.540367
 21
11.03659
 31
0.0
  0
LINE
  5
D3
100
AcDbEntity
  8
ALS
100
AcDbLine
 10
150.995613
 20
11.716201
 30
0.0
 11
150.61642
 21
9.93224
 31
0.0
  0
LINE
  5
D4
100
AcDbEntity
  8
ALS
100
AcDbLine
 10
148.627208
 20
9.95151
 30
0.0
 11
149.45755
 21
11.306505
 31
0.0
  0
LINE
  5
D5
100
AcDbEntity
  8
ALS
100
AcDbLine
 10
156.729678
 20
10.772401
 30
0.0
 11
155.307971
 21
10.772401
 31
0.0
  0
LINE
  5
D6
100
AcDbEntity
  8
ALS
 62
     0
100
AcDbLine
 10
156.412525
 20
10.772401
 30
0.0
 11
156.815287
 21
11.175163
 31
0.0
  0
LINE
  5
D7
100
AcDbEntity
  8
ALS
 62
     0
100
AcDbLine
 10
156.120844
 20
10.772401
 30
0.0
 11
156.894022
 21
11.545579
 31
0.0
  0
LINE
  5
D8
100
AcDbEntity
  8
ALS
 62
     0
100
AcDbLine
 10
155.829162
 20
10.772401
 30
0.0
 11
156.772962
 21
11.716201
 31
0.0
  0
LINE
  5
D9
100
AcDbEntity
  8
ALS
100
AcDbLine
 10
156.930288
 20
11.716201
 30
0.0
 11
155.169012
 21
11.716201
 31
0.0
  0
LINE
  5
DA
100
AcDbEntity
  8
ALS
 62
     0
100
AcDbLine
 10
155.537481
 20
10.772401
 30
0.0
 11
156.481281
 21
11.716201
 31
0.0
  0
LINE
  5
DB
100
AcDbEntity
  8
ALS
 62
     0
100
AcDbLine
 10
154.326117
 20
11.019446
 30
0.0
 11
155.007542
 21
11.700871
 31
0.0
  0
ARC
  5
DC
100
AcDbEntity
  8
ALS
100
AcDbCircle
 10
155.169012
 20
10.858201
 30
0.0
 40
0.858
100
AcDbArc
 50
90.0
 51
168.0
  0
LINE
  5
DD
100
AcDbEntity
  8
ALS
 62
     0
100
AcDbLine
 10
154.04846
 20
9.283381
 30
0.0
 11
155.157785
 21
10.392705
 31
0.0
  0
LINE
  5
DE
100
AcDbEntity
  8
ALS
 62
     0
100
AcDbLine
 10
154.079073
 20
10.772401
 30
0.0
 11
154.125607
 21
10.818936
 31
0.0
  0
LINE
  5
DF
100
AcDbEntity
  8
ALS
 62
     0
100
AcDbLine
 10
153.090397
 20
10.075407
 30
0.0
 11
153.358391
 21
10.343401
 31
0.0
  0
LINE
  5
E0
100
AcDbEntity
  8
ALS
100
AcDbLine
 10
153.85895
 20
9.564413
 30
0.0
 11
153.915105
 21
9.828601
 31
0.0
  0
LINE
  5
E1
100
AcDbEntity
  8
ALS
100
AcDbLine
 10
153.052383
 20
9.896562
 30
0.0
 11
153.147361
 21
10.343401
 31
0.0
  0
LINE
  5
E2
100
AcDbEntity
  8
ALS
100
AcDbLine
 10
154.18242
 20
10.343401
 30
0.0
 11
153.147361
 21
10.343401
 31
0.0
  0
LINE
  5
E3
100
AcDbEntity
  8
ALS
100
AcDbLine
 10
153.915105
 20
9.828601
 30
0.0
 11
154.072996
 21
9.828601
 31
0.0
  0
LINE
  5
E4
100
AcDbEntity
  8
ALS
100
AcDbLine
 10
155.05991
 20
9.93224
 30
0.0
 11
155.224046
 21
10.70444
 31
0.0
  0
ARC
  5
E5
100
AcDbEntity
  8
ALS
100
AcDbCircle
 10
155.143835
 20
9.914401
 30
0.0
 40
0.0858
100
AcDbArc
 50
168.0
 51
270.0
  0
ARC
  5
E6
100
AcDbEntity
  8
ALS
100
AcDbCircle
 10
152.968458
 20
9.914401
 30
0.0
 40
0.0858
100
AcDbArc
 50
270.0
 51
348.0
  0
LINE
  5
E7
100
AcDbEntity
  8
ALS
 62
     0
100
AcDbLine
 10
153.787391
 20
10.772401
 30
0.0
 11
154.204342
 21
11.189352
 31
0.0
  0
LINE
  5
E8
100
AcDbEntity
  8
ALS
 62
     0
100
AcDbLine
 10
153.49571
 20
10.772401
 30
0.0
 11
154.283076
 21
11.559768
 31
0.0
  0
LINE
  5
E9
100
AcDbEntity
  8
ALS
 62
     0
100
AcDbLine
 10
153.204028
 20
10.772401
 30
0.0
 11
154.147828
 21
11.716201
 31
0.0
  0
LINE
  5
EA
100
AcDbEntity
  8
ALS
 62
     0
100
AcDbLine
 10
152.912347
 20
10.772401
 30
0.0
 11
153.856147
 21
11.716201
 31
0.0
  0
LINE
  5
EB
100
AcDbEntity
  8
ALS
 62
     0
100
AcDbLine
 10
152.620665
 20
10.772401
 30
0.0
 11
153.564465
 21
11.716201
 31
0.0
  0
LINE
  5
EC
100
AcDbEntity
  8
ALS
100
AcDbLine
 10
154.026589
 20
9.610273
 30
0.0
 11
154.329762
 21
11.03659
 31
0.0
  0
LINE
  5
ED
100
AcDbEntity
  8
ALS
100
AcDbLine
 10
154.115716
 20
10.772401
 30
0.0
 11
154.316327
 21
11.716201
 31
0.0
  0
LINE
  5
EE
100
AcDbEntity
  8
ALS
 62
     0
100
AcDbLine
 10
154.016215
 20
9.542817
 30
0.0
 11
156.189599
 21
11.716201
 31
0.0
  0
LINE
  5
EF
100
AcDbEntity
  8
ALS
 62
     0
100
AcDbLine
 10
154.089915
 20
9.908198
 30
0.0
 11
155.897918
 21
11.716201
 31
0.0
  0
LINE
  5
F0
100
AcDbEntity
  8
ALS
 62
     0
100
AcDbLine
 10
154.247383
 20
10.64903
 30
0.0
 11
155.314555
 21
11.716201
 31
0.0
  0
LINE
  5
F1
100
AcDbEntity
  8
ALS
100
AcDbLine
 10
155.143835
 20
9.828601
 30
0.0
 11
156.529067
 21
9.828601
 31
0.0
  0
ARC
  5
F2
100
AcDbEntity
  8
ALS
100
AcDbCircle
 10
155.307971
 20
10.686601
 30
0.0
 40
0.0858
100
AcDbArc
 50
90.0
 51
168.0
  0
LINE
  5
F3
100
AcDbEntity
  8
ALS
 62
     0
100
AcDbLine
 10
156.704207
 20
10.772401
 30
0.0
 11
156.736553
 21
10.804747
 31
0.0
  0
LINE
  5
F4
100
AcDbEntity
  8
ALS
100
AcDbLine
 10
156.729678
 20
10.772401
 30
0.0
 11
156.930288
 21
11.716201
 31
0.0
  0
ARC
  5
F5
100
AcDbEntity
  8
AHJ
  6
BYBLOCK
 62
     0
100
AcDbCircle
 10
145.742743
 20
50.845275
 30
0.0
 40
0.25
100
AcDbArc
 50
21.8
 51
201.8
  0
ARC
  5
F6
100
AcDbEntity
  8
AHJ
  6
BYBLOCK
 62
     0
100
AcDbCircle
 10
145.742743
 20
50.845275
 30
0.0
 40
0.25
100
AcDbArc
 50
201.8
 51
21.8
  0
LINE
  5
F7
100
AcDbEntity
  8
AHJ
  6
BYBLOCK
 62
     0
100
AcDbLine
 10
145.2785
 20
50.659591
 30
0.0
 11
144.814257
 21
50.473907
 31
0.0
  0
LINE
  5
F8
100
AcDbEntity
  8
1MOKU
100
AcDbLine
 10
97.122822
 20
148.169018
 30
0.0
 11
130.545927
 21
64.605294
 31
0.0
  0
POINT
  5
F9
100
AcDbEntity
  8
DEFPOINTS
 62
     0
100
AcDbPoint
 10
130.545927
 20
64.605294
 30
0.0
  0
POINT
  5
FA
100
AcDbEntity
  8
DEFPOINTS
 62
     0
100
AcDbPoint
 10
115.691214
 20
101.744727
 30
0.0
  0
LINE
  5
FB
100
AcDbEntity
  8
1AL
100
AcDbLine
 10
119.405554
 20
119.385692
 30
0.0
 11
111.049182
 21
116.043382
 31
0.0
  0
LINE
  5
FC
100
AcDbEntity
  8
1AL
100
AcDbLine
 10
111.6063
 20
117.343236
 30
0.0
 11
111.234932
 21
118.271721
 31
0.0
  0
LINE
  5
FD
100
AcDbEntity
  8
1AL
100
AcDbLine
 10
112.163418
 20
118.643089
 30
0.0
 11
111.234932
 21
118.271721
 31
0.0
  0
ARC
  5
FE
100
AcDbEntity
  8
1AL
100
AcDbCircle
 10
111.513491
 20
118.921648
 30
0.0
 40
0.5
100
AcDbArc
 50
21.8
 51
111.8
  0
ARC
  5
FF
100
AcDbEntity
  8
1AL
100
AcDbCircle
 10
111.884859
 20
117.993162
 30
0.0
 40
0.5
100
AcDbArc
 50
111.8
 51
291.8
  0
LINE
  5
100
100
AcDbEntity
  8
1AL
100
AcDbLine
 10
111.23533
 20
134.427216
 30
0.0
 11
116.805847
 21
120.499928
 31
0.0
  0
LINE
  5
101
100
AcDbEntity
  8
ACL
  6
CENTER2
100
AcDbLine
 10
132.470365
 20
138.074023
 30
0.0
 11
109.317582
 21
128.813571
 31
0.0
  0
LINE
  5
102
100
AcDbEntity
  8
1AL
100
AcDbLine
 10
111.049182
 20
116.043382
 30
0.0
 11
109.935078
 21
118.828839
 31
0.0
  0
LINE
  5
103
100
AcDbEntity
  8
1AL
100
AcDbLine
 10
111.327807
 20
119.385891
 30
0.0
 11
109.935078
 21
118.828839
 31
0.0
  0
POINT
  5
104
100
AcDbEntity
  8
DEFPOINTS
 62
     0
100
AcDbPoint
 10
110.120696
 20
115.672014
 30
0.0
  0
LINE
  5
105
100
AcDbEntity
  8
1AL
100
AcDbLine
 10
87.837964
 20
144.45534
 30
0.0
 11
89.230692
 21
145.012391
 31
0.0
  0
LINE
  5
106
100
AcDbEntity
  8
1AL
100
AcDbLine
 10
88.395082
 20
145.755193
 30
0.0
 11
88.859325
 21
145.940877
 31
0.0
  0
ARC
  5
107
100
AcDbEntity
  8
1AL
100
AcDbCircle
 10
89.045008
 20
145.476634
 30
0.0
 40
0.5
100
AcDbArc
 50
291.8
 51
111.8
  0
ARC
  5
108
100
AcDbEntity
  8
1AL
100
AcDbCircle
 10
103.343266
 20
133.963172
 30
0.0
 40
0.5
100
AcDbArc
 50
21.8
 51
201.8
  0
LINE
  5
109
100
AcDbEntity
  8
1AL
100
AcDbLine
 10
102.879023
 20
133.777488
 30
0.0
 11
103.807443
 21
131.456273
 31
0.0
  0
LINE
  5
10A
100
AcDbEntity
  8
1AL
100
AcDbLine
 10
103.807443
 20
131.456273
 30
0.0
 11
111.23533
 21
134.427216
 31
0.0
  0
LINE
  5
10B
100
AcDbEntity
  8
1AL
100
AcDbLine
 10
104.364561
 20
132.756127
 30
0.0
 11
110.863962
 21
135.355702
 31
0.0
  0
LINE
  5
10C
100
AcDbEntity
  8
1AL
100
AcDbLine
 10
103.807509
 20
134.148855
 30
0.0
 11
104.364561
 21
132.756127
 31
0.0
  0
POINT
  5
10D
100
AcDbEntity
  8
DEFPOINTS
 62
     0
100
AcDbPoint
 10
97.122822
 20
148.169018
 30
0.0
  0
POINT
  5
10E
100
AcDbEntity
  8
DEFPOINTS
 62
     0
100
AcDbPoint
 10
97.122822
 20
148.169018
 30
0.0
  0
LINE
  5
10F
100
AcDbEntity
  8
1AL
100
AcDbLine
 10
119.405554
 20
119.385692
 30
0.0
 11
113.463669
 21
134.241466
 31
0.0
  0
LINE
  5
110
100
AcDbEntity
  8
1AL
100
AcDbLine
 10
118.105701
 20
119.94281
 30
0.0
 11
112.163815
 21
134.798584
 31
0.0
  0
LINE
  5
111
100
AcDbEntity
  8
1AL
100
AcDbLine
 10
112.163815
 20
134.798584
 30
0.0
 11
118.105701
 21
119.94281
 31
0.0
  0
LINE
  5
112
100
AcDbEntity
  8
1AL
100
AcDbLine
 10
118.105701
 20
119.94281
 30
0.0
 11
111.6063
 21
117.343236
 31
0.0
  0
LINE
  5
113
100
AcDbEntity
  8
1AL
100
AcDbLine
 10
111.699175
 20
118.457405
 30
0.0
 11
116.805847
 21
120.499928
 31
0.0
  0
LINE
  5
114
100
AcDbEntity
  8
1AL
100
AcDbLine
 10
112.070543
 20
117.528919
 30
0.0
 11
118.105701
 21
119.94281
 31
0.0
  0
LINE
  5
115
100
AcDbEntity
  8
1AL
100
AcDbLine
 10
112.163418
 20
118.643089
 30
0.0
 11
111.977734
 21
119.107332
 31
0.0
  0
POINT
  5
116
100
AcDbEntity
  8
DEFPOINTS
 62
     0
100
AcDbPoint
 10
118.477069
 20
119.014325
 30
0.0
  0
LINE
  5
117
100
AcDbEntity
  8
1AL
100
AcDbLine
 10
112.163815
 20
134.798584
 30
0.0
 11
121.448674
 21
138.512262
 31
0.0
  0
LINE
  5
118
100
AcDbEntity
  8
1AL
100
AcDbLine
 10
113.463669
 20
134.241466
 30
0.0
 11
121.820041
 21
137.583776
 31
0.0
  0
LINE
  5
119
100
AcDbEntity
  8
1AL
100
AcDbLine
 10
121.820041
 20
137.583776
 30
0.0
 11
122.562777
 21
135.726804
 31
0.0
  0
ARC
  5
11A
100
AcDbEntity
  8
1AL
100
AcDbCircle
 10
123.769822
 20
136.748099
 30
0.0
 40
0.5
100
AcDbArc
 50
291.8
 51
111.8
  0
LINE
  5
11B
100
AcDbEntity
  8
1AL
100
AcDbLine
 10
111.792448
 20
135.727069
 30
0.0
 11
118.291848
 21
138.326644
 31
0.0
  0
LINE
  5
11C
100
AcDbEntity
  8
1AL
100
AcDbLine
 10
112.163815
 20
134.798584
 30
0.0
 11
120.798734
 21
138.252304
 31
0.0
  0
LINE
  5
11D
100
AcDbEntity
  8
1AL
100
AcDbLine
 10
122.562777
 20
135.726804
 30
0.0
 11
123.955506
 21
136.283856
 31
0.0
  0
LINE
  5
11E
100
AcDbEntity
  8
1AL
100
AcDbLine
 10
119.220334
 20
138.698012
 30
0.0
 11
121.077306
 21
139.440748
 31
0.0
  0
ARC
  5
11F
100
AcDbEntity
  8
1AL
100
AcDbCircle
 10
118.199039
 20
139.905057
 30
0.0
 40
0.5
100
AcDbArc
 50
21.8
 51
201.8
  0
LINE
  5
120
100
AcDbEntity
  8
1AL
100
AcDbLine
 10
117.734797
 20
139.719373
 30
0.0
 11
118.291848
 21
138.326644
 31
0.0
  0
LINE
  5
121
100
AcDbEntity
  8
1AL
100
AcDbLine
 10
118.663282
 20
140.090741
 30
0.0
 11
119.220334
 21
138.698012
 31
0.0
  0
LINE
  5
122
100
AcDbEntity
  8
1AL
100
AcDbLine
 10
120.241695
 20
140.18355
 30
0.0
 11
121.634424
 21
140.740601
 31
0.0
  0
LINE
  5
123
100
AcDbEntity
  8
1AL
100
AcDbLine
 10
123.119895
 20
137.026658
 30
0.0
 11
123.584138
 21
137.212342
 31
0.0
  0
LINE
  5
124
100
AcDbEntity
  8
1AL
100
AcDbLine
 10
119.963136
 20
139.533623
 30
0.0
 11
120.14882
 21
139.06938
 31
0.0
  0
LINE
  5
125
100
AcDbEntity
  8
1AL
100
AcDbLine
 10
121.634424
 20
140.740601
 30
0.0
 11
123.119895
 21
137.026658
 31
0.0
  0
LINE
  5
126
100
AcDbEntity
  8
1AL
100
AcDbLine
 10
121.077306
 20
139.440748
 30
0.0
 11
121.448674
 21
138.512262
 31
0.0
  0
LINE
  5
127
100
AcDbEntity
  8
1AL
100
AcDbLine
 10
120.14882
 20
139.06938
 30
0.0
 11
121.077306
 21
139.440748
 31
0.0
  0
ARC
  5
128
100
AcDbEntity
  8
1AL
100
AcDbCircle
 10
120.427379
 20
139.719307
 30
0.0
 40
0.5
100
AcDbArc
 50
111.8
 51
201.8
  0
LINE
  5
129
100
AcDbEntity
  8
1AL
100
AcDbLine
 10
121.077306
 20
139.440748
 30
0.0
 11
121.188716
 21
139.162202
 31
0.0
  0
ARC
  5
12A
100
AcDbEntity
  8
1AL
100
AcDbCircle
 10
120.538776
 20
138.902245
 30
0.0
 40
0.7
100
AcDbArc
 50
291.8
 51
21.8
  0
LINE
  5
12B
100
AcDbEntity
  8
ACL
  6
CENTER2
100
AcDbLine
 10
169.403006
 20
147.999425
 30
0.0
 11
153.67893
 21
141.710243
 31
0.0
  0
LINE
  5
12C
100
AcDbEntity
  8
ALS
 62
     0
100
AcDbLine
 10
43.206965
 20
172.565608
 30
0.0
 11
100.773087
 21
195.590413
 31
0.0
1001
ACAD
1000
RTLwPs
1070
   158
  0
LINE
  5
12D
100
AcDbEntity
  8
ALS
 62
     0
100
AcDbLine
 10
46.177908
 20
165.137721
 30
0.0
 11
83.317341
 21
179.992434
 31
0.0
1001
ACAD
1000
RTLwPs
1070
   158
  0
LINE
  5
12E
100
AcDbEntity
  8
ADM
 62
     0
100
AcDbLine
 10
89.259226
 20
165.136661
 30
0.0
 11
63.261623
 21
154.738362
 31
0.0
1001
ACAD
1000
RTLwPs
1070
   158
  0
LINE
  5
12F
100
AcDbEntity
  8
AHJ
  6
BYBLOCK
 62
     0
100
AcDbLine
 10
45.713665
 20
164.952037
 30
0.0
 11
46.177908
 21
165.137721
 31
0.0
  0
ARC
  5
130
100
AcDbEntity
  8
AHJ
  6
BYBLOCK
 62
     0
100
AcDbCircle
 10
45.249422
 20
164.766353
 30
0.0
 40
0.25
100
AcDbArc
 50
201.8
 51
21.8
  0
ARC
  5
131
100
AcDbEntity
  8
AHJ
  6
BYBLOCK
 62
     0
100
AcDbCircle
 10
45.249422
 20
164.766353
 30
0.0
 40
0.25
100
AcDbArc
 50
21.8
 51
201.8
  0
ARC
  5
132
100
AcDbEntity
  8
AHJ
  6
BYBLOCK
 62
     0
100
AcDbCircle
 10
42.27848
 20
172.19424
 30
0.0
 40
0.25
100
AcDbArc
 50
201.8
 51
21.8
  0
ARC
  5
133
100
AcDbEntity
  8
AHJ
  6
BYBLOCK
 62
     0
100
AcDbCircle
 10
42.27848
 20
172.19424
 30
0.0
 40
0.25
100
AcDbArc
 50
21.8
 51
201.8
  0
LINE
  5
134
100
AcDbEntity
  8
AHJ
  6
BYBLOCK
 62
     0
100
AcDbLine
 10
42.742722
 20
172.379924
 30
0.0
 11
43.206965
 21
172.565608
 31
0.0
  0
ARC
  5
135
100
AcDbEntity
  8
AHJ
  6
BYBLOCK
 62
     0
100
AcDbCircle
 10
62.333137
 20
154.366994
 30
0.0
 40
0.25
100
AcDbArc
 50
201.8
 51
21.8
  0
ARC
  5
136
100
AcDbEntity
  8
AHJ
  6
BYBLOCK
 62
     0
100
AcDbCircle
 10
62.333137
 20
154.366994
 30
0.0
 40
0.25
100
AcDbArc
 50
21.8
 51
201.8
  0
TEXT
  5
137
100
AcDbEntity
  8
0
 62
     0
100
AcDbText
 10
59.852992
 20
163.068208
 30
0.0
 40
3.0
  1
12
 50
21.8
100
AcDbText
1001
ACAD
1000
MTEXTBEGIN
1070
    73
1070
     1
1070
    44
1040
1.0
1070
    74
1070
     0
1000
MTEXTEND
  0
LINE
  5
138
100
AcDbEntity
  8
ALS
 62
     0
100
AcDbLine
 10
58.433709
 20
161.423513
 30
0.0
 11
67.718567
 21
165.137191
 31
0.0
1001
ACAD
1000
RTLwPs
1070
   158
  0
TEXT
  5
139
100
AcDbEntity
  8
0
 62
     0
100
AcDbText
 10
49.639648
 20
158.983162
 30
0.0
 40
3.0
  1
10
 50
21.8
100
AcDbText
1001
ACAD
1000
MTEXTBEGIN
1070
    73
1070
     1
1070
    44
1040
1.0
1070
    74
1070
     0
1000
MTEXTEND
  0
LINE
  5
13A
100
AcDbEntity
  8
ALS
 62
     0
100
AcDbLine
 10
61.744671
 20
150.452768
 30
0.0
 11
57.059582
 21
162.166328
 31
0.0
1001
ACAD
1000
RTLwPs
1070
   158
  0
LINE
  5
13B
100
AcDbEntity
  8
ALS
 62
     0
100
AcDbLine
 10
56.576737
 20
160.680777
 30
0.0
 11
49.148851
 21
157.709834
 31
0.0
1001
ACAD
1000
RTLwPs
1070
   158
  0
LINE
  5
13C
100
AcDbEntity
  8
ALS
 62
     0
100
AcDbLine
 10
61.744671
 20
150.452768
 30
0.0
 11
57.059582
 21
162.166328
 31
0.0
1001
ACAD
1000
RTLwPs
1070
   158
  0
ARC
  5
13D
100
AcDbEntity
  8
AHJ
  6
BYBLOCK
 62
     0
100
AcDbCircle
 10
48.220365
 20
157.338466
 30
0.0
 40
0.25
100
AcDbArc
 50
201.8
 51
21.8
  0
ARC
  5
13E
100
AcDbEntity
  8
AHJ
  6
BYBLOCK
 62
     0
100
AcDbCircle
 10
48.220365
 20
157.338466
 30
0.0
 40
0.25
100
AcDbArc
 50
21.8
 51
201.8
  0
LINE
  5
13F
100
AcDbEntity
  8
AHJ
  6
BYBLOCK
 62
     0
100
AcDbLine
 10
48.684608
 20
157.52415
 30
0.0
 11
49.148851
 21
157.709834
 31
0.0
  0
POINT
  5
140
100
AcDbEntity
  8
DEFPOINTS
 62
     0
100
AcDbPoint
 10
48.220365
 20
157.338466
 30
0.0
  0
POINT
  5
141
100
AcDbEntity
  8
DEFPOINTS
 62
     0
100
AcDbPoint
 10
62.333137
 20
154.366994
 30
0.0
  0
LINE
  5
142
100
AcDbEntity
  8
AHJ
  6
BYBLOCK
 62
     0
100
AcDbLine
 10
57.969466
 20
161.237829
 30
0.0
 11
58.433709
 21
161.423513
 31
0.0
  0
ARC
  5
143
100
AcDbEntity
  8
AHJ
  6
BYBLOCK
 62
     0
100
AcDbCircle
 10
57.505223
 20
161.052145
 30
0.0
 40
0.25
100
AcDbArc
 50
201.8
 51
21.8
  0
ARC
  5
144
100
AcDbEntity
  8
AHJ
  6
BYBLOCK
 62
     0
100
AcDbCircle
 10
57.505223
 20
161.052145
 30
0.0
 40
0.25
100
AcDbArc
 50
21.8
 51
201.8
  0
ARC
  5
145
100
AcDbEntity
  8
AHJ
  6
BYBLOCK
 62
     0
100
AcDbCircle
 10
57.505223
 20
161.052145
 30
0.0
 40
0.25
100
AcDbArc
 50
21.8
 51
201.8
  0
ARC
  5
146
100
AcDbEntity
  8
AHJ
  6
BYBLOCK
 62
     0
100
AcDbCircle
 10
57.505223
 20
161.052145
 30
0.0
 40
0.25
100
AcDbArc
 50
201.8
 51
21.8
  0
LINE
  5
147
100
AcDbEntity
  8
AHJ
  6
BYBLOCK
 62
     0
100
AcDbLine
 10
57.04098
 20
160.866461
 30
0.0
 11
56.576737
 21
160.680777
 31
0.0
  0
LINE
  5
148
100
AcDbEntity
  8
ALS
 62
     0
100
AcDbLine
 10
72.886501
 20
154.909182
 30
0.0
 11
68.201412
 21
166.622742
 31
0.0
1001
ACAD
1000
RTLwPs
1070
   158
  0
POINT
  5
149
100
AcDbEntity
  8
DEFPOINTS
 62
     0
100
AcDbPoint
 10
62.487407
 20
148.595797
 30
0.0
  0
POINT
  5
14A
100
AcDbEntity
  8
DEFPOINTS
 62
     0
100
AcDbPoint
 10
62.487407
 20
148.595797
 30
0.0
  0
LINE
  5
14B
100
AcDbEntity
  8
AHJ
  6
BYBLOCK
 62
     0
100
AcDbLine
 10
62.79738
 20
154.552678
 30
0.0
 11
63.261623
 21
154.738362
 31
0.0
  0
POINT
  5
14C
100
AcDbEntity
  8
DEFPOINTS
 62
     0
100
AcDbPoint
 10
73.629237
 20
153.052211
 30
0.0
  0
ARC
  5
14D
100
AcDbEntity
  8
AHJ
  6
BYBLOCK
 62
     0
100
AcDbCircle
 10
68.647053
 20
165.508559
 30
0.0
 40
0.25
100
AcDbArc
 50
21.8
 51
201.8
  0
ARC
  5
14E
100
AcDbEntity
  8
AHJ
  6
BYBLOCK
 62
     0
100
AcDbCircle
 10
68.647053
 20
165.508559
 30
0.0
 40
0.25
100
AcDbArc
 50
201.8
 51
21.8
  0
LINE
  5
14F
100
AcDbEntity
  8
AHJ
  6
BYBLOCK
 62
     0
100
AcDbLine
 10
68.18281
 20
165.322875
 30
0.0
 11
67.718567
 21
165.137191
 31
0.0
  0
POINT
  5
150
100
AcDbEntity
  8
DEFPOINTS
 62
     0
100
AcDbPoint
 10
68.647053
 20
165.508559
 30
0.0
  0
TEXT
  5
151
100
AcDbEntity
  8
0
 62
     0
100
AcDbText
 10
73.23624
 20
159.804946
 30
0.0
 40
3.0
  1
30
 50
21.8
100
AcDbText
1001
ACAD
1000
MTEXTBEGIN
1070
    73
1070
     1
1070
    44
1040
1.0
1070
    74
1070
     0
1000
MTEXTEND
  0
TEXT
  5
152
100
AcDbEntity
  8
0
 62
     0
100
AcDbText
 10
61.72344
 20
172.432512
 30
0.0
 40
3.0
  1
42
 50
21.8
100
AcDbText
1001
ACAD
1000
MTEXTBEGIN
1070
    73
1070
     1
1070
    44
1040
1.0
1070
    74
1070
     0
1000
MTEXTEND
  0
TEXT
  5
153
100
AcDbEntity
  8
0
 62
     0
100
AcDbText
 10
68.833201
 20
183.892393
 30
0.0
 40
3.0
  1
64
 50
21.8
100
AcDbText
1001
ACAD
1000
MTEXTBEGIN
1070
    73
1070
     1
1070
    44
1040
1.0
1070
    74
1070
     0
1000
MTEXTEND
  0
LINE
  5
154
100
AcDbEntity
  8
1BUHIN
100
AcDbLine
 10
181.885148
 20
187.456641
 30
0.0
 11
105.015084
 21
156.710809
 31
0.0
  0
LINE
  5
155
100
AcDbEntity
  8
ALS
100
AcDbLine
 10
181.142412
 20
189.313613
 30
0.0
 11
102.879619
 21
158.010729
 31
0.0
  0
LINE
  5
156
100
AcDbEntity
  8
1BUHIN
100
AcDbLine
 10
182.627884
 20
185.59967
 30
0.0
 11
104.829334
 21
154.48247
 31
0.0
  0
LINE
  5
157
100
AcDbEntity
  8
ALS
 62
     0
100
AcDbLine
 10
113.093096
 20
167.48094
 30
0.0
 11
101.255931
 21
197.075964
 31
0.0
1001
ACAD
1000
RTLwPs
1070
   158
  0
LINE
  5
158
100
AcDbEntity
  8
ALS
 62
     0
100
AcDbLine
 10
114.2072
 20
164.695483
 30
0.0
 11
101.255931
 21
197.075964
 31
0.0
1001
ACAD
1000
RTLwPs
1070
   158
  0
LINE
  5
159
100
AcDbEntity
  8
1AL
100
AcDbLine
 10
111.978595
 20
154.110903
 30
0.0
 11
111.050176
 21
156.432118
 31
0.0
  0
LINE
  5
15A
100
AcDbEntity
  8
1AL
100
AcDbLine
 10
109.550601
 20
152.062753
 30
0.0
 11
115.709256
 21
154.526039
 31
0.0
  0
LINE
  5
15B
100
AcDbEntity
  8
ALS
 62
     0
100
AcDbLine
 10
116.806774
 20
158.196082
 30
0.0
 11
104.226874
 21
189.648078
 31
0.0
1001
ACAD
1000
RTLwPs
1070
   158
  0
LINE
  5
15C
100
AcDbEntity
  8
ALS
 62
     0
100
AcDbLine
 10
96.380086
 20
150.02599
 30
0.0
 11
83.800186
 21
181.477985
 31
0.0
1001
ACAD
1000
RTLwPs
1070
   158
  0
LINE
  5
15D
100
AcDbEntity
  8
ALS
 62
     0
100
AcDbLine
 10
92.666408
 20
159.310848
 30
0.0
 11
83.800186
 21
181.477985
 31
0.0
1001
ACAD
1000
RTLwPs
1070
   158
  0
LINE
  5
15E
100
AcDbEntity
  8
1AL
100
AcDbLine
 10
87.482601
 20
149.039813
 30
0.0
 11
104.460501
 21
151.365496
 31
0.0
  0
LINE
  5
15F
100
AcDbEntity
  8
ADM
 62
     0
100
AcDbLine
 10
96.380086
 20
150.02599
 30
0.0
 11
89.742071
 21
166.622212
 31
0.0
1001
ACAD
1000
RTLwPs
1070
   158
  0
ARC
  5
160
100
AcDbEntity
  8
1AL
100
AcDbCircle
 10
87.523316
 20
148.742588
 30
0.0
 40
0.3
100
AcDbArc
 50
97.8
 51
201.8
  0
POINT
  5
161
100
AcDbEntity
  8
DEFPOINTS
 62
     0
100
AcDbPoint
 10
93.409144
 20
157.453876
 30
0.0
  0
ARC
  5
162
100
AcDbEntity
  8
AHJ
  6
BYBLOCK
 62
     0
100
AcDbCircle
 10
90.187712
 20
165.508029
 30
0.0
 40
0.25
100
AcDbArc
 50
21.8
 51
201.8
  0
ARC
  5
163
100
AcDbEntity
  8
AHJ
  6
BYBLOCK
 62
     0
100
AcDbCircle
 10
90.187712
 20
165.508029
 30
0.0
 40
0.25
100
AcDbArc
 50
201.8
 51
21.8
  0
LINE
  5
164
100
AcDbEntity
  8
AHJ
  6
BYBLOCK
 62
     0
100
AcDbLine
 10
89.723469
 20
165.322345
 30
0.0
 11
89.259226
 21
165.136661
 31
0.0
  0
LINE
  5
165
100
AcDbEntity
  8
1AL
100
AcDbLine
 10
102.322502
 20
156.710876
 30
0.0
 11
103.935165
 21
152.678928
 31
0.0
  0
ARC
  5
166
100
AcDbEntity
  8
1AL
100
AcDbCircle
 10
103.695624
 20
156.778398
 30
0.0
 40
0.3
100
AcDbArc
 50
95.100756
 51
201.8
  0
LINE
  5
167
100
AcDbEntity
  8
1AL
100
AcDbLine
 10
102.879619
 20
158.010729
 30
0.0
 11
106.446337
 21
158.329098
 31
0.0
  0
LINE
  5
168
100
AcDbEntity
  8
1AL
100
AcDbLine
 10
99.009241
 20
155.003023
 30
0.0
 11
99.537044
 21
155.596772
 31
0.0
  0
LINE
  5
169
100
AcDbEntity
  8
1AL
100
AcDbLine
 10
98.23719
 20
156.15389
 30
0.0
 11
102.879619
 21
158.010729
 31
0.0
  0
LINE
  5
16A
100
AcDbEntity
  8
1AL
100
AcDbLine
 10
98.23719
 20
156.15389
 30
0.0
 11
98.674065
 21
155.061626
 31
0.0
  0
ARC
  5
16B
100
AcDbEntity
  8
1AL
100
AcDbCircle
 10
98.859762
 20
155.135899
 30
0.0
 40
0.2
100
AcDbArc
 50
201.8
 51
318.365051
  0
LINE
  5
16C
100
AcDbEntity
  8
1AL
100
AcDbLine
 10
99.537044
 20
155.596772
 30
0.0
 11
102.322502
 21
156.710876
 31
0.0
  0
LINE
  5
16D
100
AcDbEntity
  8
1AL
100
AcDbLine
 10
111.050109
 20
153.739535
 30
0.0
 11
110.12169
 21
156.06075
 31
0.0
  0
LINE
  5
16E
100
AcDbEntity
  8
1AL
100
AcDbLine
 10
103.417078
 20
156.666988
 30
0.0
 11
105.098842
 21
152.462276
 31
0.0
  0
LINE
  5
16F
100
AcDbEntity
  8
1AL
100
AcDbLine
 10
105.098842
 20
152.462276
 30
0.0
 11
109.183155
 21
153.021757
 31
0.0
  0
LINE
  5
170
100
AcDbEntity
  8
1AL
100
AcDbLine
 10
105.862009
 20
151.557478
 30
0.0
 11
109.550601
 21
152.062753
 31
0.0
  0
ARC
  5
171
100
AcDbEntity
  8
1AL
100
AcDbCircle
 10
105.902724
 20
151.260254
 30
0.0
 40
0.3
100
AcDbArc
 50
97.8
 51
201.8
  0
ARC
  5
172
100
AcDbEntity
  8
1AL
100
AcDbCircle
 10
103.65662
 20
152.567518
 30
0.0
 40
0.3
100
AcDbArc
 50
277.8
 51
21.8
  0
LINE
  5
173
100
AcDbEntity
  8
1AL
100
AcDbLine
 10
109.183155
 20
153.021757
 30
0.0
 11
111.040127
 21
153.764493
 31
0.0
  0
LINE
  5
174
100
AcDbEntity
  8
1AL
100
AcDbLine
 10
105.479327
 20
156.896493
 30
0.0
 11
106.175691
 21
157.175019
 31
0.0
  0
LINE
  5
175
100
AcDbEntity
  8
1AL
100
AcDbLine
 10
105.347131
 20
157.227006
 30
0.0
 11
105.479327
 21
156.896493
 31
0.0
  0
ARC
  5
176
100
AcDbEntity
  8
1AL
100
AcDbCircle
 10
106.407813
 20
157.267861
 30
0.0
 40
0.25
100
AcDbArc
 50
21.8
 51
201.8
  0
LINE
  5
177
100
AcDbEntity
  8
1AL
100
AcDbLine
 10
106.639934
 20
157.360703
 30
0.0
 11
107.336298
 21
157.639229
 31
0.0
  0
LINE
  5
178
100
AcDbEntity
  8
1AL
100
AcDbLine
 10
107.336298
 20
157.639229
 30
0.0
 11
107.260251
 21
157.82936
 31
0.0
  0
ARC
  5
179
100
AcDbEntity
  8
1AL
100
AcDbCircle
 10
106.517463
 20
157.532266
 30
0.0
 40
0.8
100
AcDbArc
 50
21.8
 51
95.100756
  0
LINE
  5
17A
100
AcDbEntity
  8
1AL
100
AcDbLine
 10
103.668951
 20
157.07721
 30
0.0
 11
105.347131
 21
157.227006
 31
0.0
  0
LINE
  5
17B
100
AcDbEntity
  8
1BUHIN
100
AcDbLine
 10
105.015084
 20
156.710809
 30
0.0
 11
104.457966
 21
155.410956
 31
0.0
  0
LINE
  5
17C
100
AcDbEntity
  8
1BUHIN
100
AcDbLine
 10
104.457966
 20
155.410956
 30
0.0
 11
104.829334
 21
154.48247
 31
0.0
  0
ARC
  5
17D
100
AcDbEntity
  8
1AL
100
AcDbCircle
 10
110.585933
 20
156.246434
 30
0.0
 40
0.5
100
AcDbArc
 50
21.8
 51
201.8
  0
TEXT
  5
17E
100
AcDbEntity
  8
0
 62
     0
100
AcDbText
 10
91.434987
 20
184.316283
 30
0.0
 40
3.0
  1
22
 50
21.8
100
AcDbText
1001
ACAD
1000
MTEXTBEGIN
1070
    73
1070
     1
1070
    44
1040
1.0
1070
    74
1070
     0
1000
MTEXTEND
  0
LINE
  5
17F
100
AcDbEntity
  8
ALS
 62
     0
100
AcDbLine
 10
85.174313
 20
180.73517
 30
0.0
 11
103.744029
 21
188.162527
 31
0.0
1001
ACAD
1000
RTLwPs
1070
   158
  0
ARC
  5
180
100
AcDbEntity
  8
AHJ
  6
BYBLOCK
 62
     0
100
AcDbCircle
 10
84.245827
 20
180.363802
 30
0.0
 40
0.25
100
AcDbArc
 50
201.8
 51
21.8
  0
ARC
  5
181
100
AcDbEntity
  8
AHJ
  6
BYBLOCK
 62
     0
100
AcDbCircle
 10
84.245827
 20
180.363802
 30
0.0
 40
0.25
100
AcDbArc
 50
21.8
 51
201.8
  0
ARC
  5
182
100
AcDbEntity
  8
AHJ
  6
BYBLOCK
 62
     0
100
AcDbCircle
 10
84.245827
 20
180.363802
 30
0.0
 40
0.25
100
AcDbArc
 50
21.8
 51
201.8
  0
ARC
  5
183
100
AcDbEntity
  8
AHJ
  6
BYBLOCK
 62
     0
100
AcDbCircle
 10
84.245827
 20
180.363802
 30
0.0
 40
0.25
100
AcDbArc
 50
201.8
 51
21.8
  0
LINE
  5
184
100
AcDbEntity
  8
AHJ
  6
BYBLOCK
 62
     0
100
AcDbLine
 10
83.781584
 20
180.178118
 30
0.0
 11
83.317341
 21
179.992434
 31
0.0
  0
LINE
  5
185
100
AcDbEntity
  8
AHJ
  6
BYBLOCK
 62
     0
100
AcDbLine
 10
84.71007
 20
180.549486
 30
0.0
 11
85.174313
 21
180.73517
 31
0.0
  0
POINT
  5
186
100
AcDbEntity
  8
DEFPOINTS
 62
     0
100
AcDbPoint
 10
84.245827
 20
180.363802
 30
0.0
  0
ARC
  5
187
100
AcDbEntity
  8
AHJ
  6
BYBLOCK
 62
     0
100
AcDbCircle
 10
104.672515
 20
188.533895
 30
0.0
 40
0.25
100
AcDbArc
 50
21.8
 51
201.8
  0
ARC
  5
188
100
AcDbEntity
  8
AHJ
  6
BYBLOCK
 62
     0
100
AcDbCircle
 10
104.672515
 20
188.533895
 30
0.0
 40
0.25
100
AcDbArc
 50
201.8
 51
21.8
  0
LINE
  5
189
100
AcDbEntity
  8
AHJ
  6
BYBLOCK
 62
     0
100
AcDbLine
 10
104.208272
 20
188.348211
 30
0.0
 11
103.744029
 21
188.162527
 31
0.0
  0
POINT
  5
18A
100
AcDbEntity
  8
DEFPOINTS
 62
     0
100
AcDbPoint
 10
104.672515
 20
188.533895
 30
0.0
  0
LINE
  5
18B
100
AcDbEntity
  8
1AL
100
AcDbLine
 10
111.978595
 20
154.110903
 30
0.0
 11
114.764053
 21
155.225007
 31
0.0
  0
LINE
  5
18C
100
AcDbEntity
  8
1AL
100
AcDbLine
 10
114.949803
 20
157.453346
 30
0.0
 11
116.342532
 21
158.010398
 31
0.0
  0
LINE
  5
18D
100
AcDbEntity
  8
1AL
100
AcDbLine
 10
114.949803
 20
157.453346
 30
0.0
 11
114.764053
 21
155.225007
 31
0.0
  0
LINE
  5
18E
100
AcDbEntity
  8
1AL
100
AcDbLine
 10
115.895006
 20
156.754378
 30
0.0
 11
115.709256
 21
154.526039
 31
0.0
  0
LINE
  5
18F
100
AcDbEntity
  8
1AL
100
AcDbLine
 10
115.895006
 20
156.754378
 30
0.0
 11
116.713899
 21
157.081912
 31
0.0
  0
ARC
  5
190
100
AcDbEntity
  8
1AL
100
AcDbCircle
 10
116.528215
 20
157.546155
 30
0.0
 40
0.5
100
AcDbArc
 50
291.8
 51
111.8
  0
POINT
  5
191
100
AcDbEntity
  8
DEFPOINTS
 62
     0
100
AcDbPoint
 10
117.54951
 20
156.33911
 30
0.0
  0
POINT
  5
192
100
AcDbEntity
  8
DEFPOINTS
 62
     0
100
AcDbPoint
 10
113.835832
 20
165.623969
 30
0.0
  0
POINT
  5
193
100
AcDbEntity
  8
DEFPOINTS
 62
     0
100
AcDbPoint
 10
114.949935
 20
162.838511
 30
0.0
  0
ARC
  5
194
100
AcDbEntity
  8
AHJ
  6
BYBLOCK
 62
     0
100
AcDbCircle
 10
101.701572
 20
195.961781
 30
0.0
 40
0.25
100
AcDbArc
 50
21.8
 51
201.8
  0
ARC
  5
195
100
AcDbEntity
  8
AHJ
  6
BYBLOCK
 62
     0
100
AcDbCircle
 10
101.701572
 20
195.961781
 30
0.0
 40
0.25
100
AcDbArc
 50
201.8
 51
21.8
  0
ARC
  5
196
100
AcDbEntity
  8
AHJ
  6
BYBLOCK
 62
     0
100
AcDbCircle
 10
101.701572
 20
195.961781
 30
0.0
 40
0.25
100
AcDbArc
 50
201.8
 51
21.8
  0
ARC
  5
197
100
AcDbEntity
  8
AHJ
  6
BYBLOCK
 62
     0
100
AcDbCircle
 10
101.701572
 20
195.961781
 30
0.0
 40
0.25
100
AcDbArc
 50
21.8
 51
201.8
  0
LINE
  5
198
100
AcDbEntity
  8
AHJ
  6
BYBLOCK
 62
     0
100
AcDbLine
 10
102.165815
 20
196.147465
 30
0.0
 11
102.630058
 21
196.333149
 31
0.0
  0
LINE
  5
199
100
AcDbEntity
  8
AHJ
  6
BYBLOCK
 62
     0
100
AcDbLine
 10
101.23733
 20
195.776097
 30
0.0
 11
100.773087
 21
195.590413
 31
0.0
  0
POINT
  5
19A
100
AcDbEntity
  8
DEFPOINTS
 62
     0
100
AcDbPoint
 10
101.701572
 20
195.961781
 30
0.0
  0
POINT
  5
19B
100
AcDbEntity
  8
DEFPOINTS
 62
     0
100
AcDbPoint
 10
101.701572
 20
195.961781
 30
0.0
  0
TEXT
  5
19C
100
AcDbEntity
  8
0
 62
     0
100
AcDbText
 10
153.023301
 20
219.012711
 30
0.0
 40
3.0
  1
H - 50
 50
21.8
100
AcDbText
1001
ACAD
1000
MTEXTBEGIN
1070
    73
1070
     1
1070
    44
1040
1.0
1070
    74
1070
     0
1000
MTEXTEND
  0
TEXT
  5
19D
100
AcDbEntity
  8
0
 62
     0
100
AcDbText
 10
300.277988
 20
145.547069
 30
0.0
 40
3.0
  1
5
 50
21.8
100
AcDbText
1001
ACAD
1000
MTEXTBEGIN
1070
    73
1070
     1
1070
    44
1040
1.0
1070
    74
1070
     0
1000
MTEXTEND
  0
LINE
  5
19E
100
AcDbEntity
  8
ADM
 62
     0
100
AcDbLine
 10
289.67228
 20
169.178144
 30
0.0
 11
300.100191
 21
143.106506
 31
0.0
1001
ACAD
1000
RTLwPs
1070
   158
  0
LINE
  5
19F
100
AcDbEntity
  8
ADM
 62
     0
100
AcDbLine
 10
294.314709
 20
171.034983
 30
0.0
 11
304.74262
 21
144.963345
 31
0.0
1001
ACAD
1000
RTLwPs
1070
   158
  0
LINE
  5
1A0
100
AcDbEntity
  8
ADM
 62
     0
100
AcDbLine
 10
284.101762
 20
183.105431
 30
0.0
 11
311.070343
 21
115.67917
 31
0.0
1001
ACAD
1000
RTLwPs
1070
   158
  0
LINE
  5
1A1
100
AcDbEntity
  8
ADM
 62
     0
100
AcDbLine
 10
275.74539
 20
179.76312
 30
0.0
 11
302.71397
 21
112.336859
 31
0.0
1001
ACAD
1000
RTLwPs
1070
   158
  0
LINE
  5
1A2
100
AcDbEntity
  8
WAKU
100
AcDbLine
 10
395.0
 20
0.0
 30
0.0
 11
395.0
 21
275.0
 31
0.0
  0
LINE
  5
1A3
100
AcDbEntity
  8
ADM
 62
     0
100
AcDbLine
 10
289.67228
 20
169.178144
 30
0.0
 11
314.041285
 21
108.251283
 31
0.0
1001
ACAD
1000
RTLwPs
1070
   158
  0
LINE
  5
1A4
100
AcDbEntity
  8
ALS
100
AcDbLine
 10
312.143014
 20
234.170959
 30
0.0
 11
308.426687
 21
135.752521
 31
0.0
  0
LINE
  5
1A5
100
AcDbEntity
  8
ACL
  6
CENTER2
100
AcDbLine
 10
293.573298
 20
226.743602
 30
0.0
 11
336.953253
 21
118.285977
 31
0.0
  0
LINE
  5
1A6
100
AcDbEntity
  8
1MOKU
100
AcDbLine
 10
308.426687
 20
135.752521
 30
0.0
 11
345.56612
 21
150.607235
 31
0.0
  0
LINE
  5
1A7
100
AcDbEntity
  8
1MOKU
100
AcDbLine
 10
275.003581
 20
219.316246
 30
0.0
 11
308.426687
 21
135.752521
 31
0.0
  0
LINE
  5
1A8
100
AcDbEntity
  8
WAKU
 62
     1
100
AcDbLine
 10
339.0
 20
13.5
 30
0.0
 11
354.0
 21
13.5
 31
0.0
  0
TEXT
  5
1A9
100
AcDbEntity
  8
WAKU
 62
     2
100
AcDbText
 10
340.5
 20
14.0
 30
0.0
 40
1.5
  1
検　図
100
AcDbText
  0
LINE
  5
1AA
100
AcDbEntity
  8
ADM
100
AcDbLine
 10
368.175758
 20
53.659667
 30
0.0
 11
338.175758
 21
41.659667
 31
0.0
  0
LINE
  5
1AB
100
AcDbEntity
  8
ADM
100
AcDbLine
 10
338.175758
 20
41.659667
 30
0.0
 11
368.175758
 21
41.659667
 31
0.0
  0
TEXT
  5
1AC
100
AcDbEntity
  8
ADM
100
AcDbText
 10
340.799035
 20
1.232009
 30
0.0
 40
2.25
  1
白井
 41
0.8
 72
     1
 11
342.839035
 21
1.232009
 31
0.0
100
AcDbText
  0
TEXT
  5
1AD
100
AcDbEntity
  8
ADM
100
AcDbText
 10
340.979035
 20
9.232009
 30
0.0
 40
2.25
  1
樋口
 41
0.8
 72
     1
 11
342.839035
 21
9.232009
 31
0.0
100
AcDbText
  0
LINE
  5
1AE
100
AcDbEntity
  8
WAKU
 62
     1
100
AcDbLine
 10
264.0
 20
0.0
 30
0.0
 11
264.0
 21
16.0
 31
0.0
  0
TEXT
  5
1AF
100
AcDbEntity
  8
ADM
100
AcDbText
 10
225.261745
 20
1.355293
 30
0.0
 40
2.5
  1
縦断面　納まり図
 41
0.8
 72
     1
 11
234.528412
 21
1.355293
 31
0.0
100
AcDbText
  0
TEXT
  5
1B0
100
AcDbEntity
  8
WAKU
 62
     2
100
AcDbText
 10
265.068684
 20
5.108234
 30
0.0
 40
2.0
  1
名　称
 72
     1
 11
268.402017
 21
5.108234
 31
0.0
100
AcDbText
  0
TEXT
  5
1B1
100
AcDbEntity
  8
WAKU
 62
     2
100
AcDbText
 10
264.935351
 20
13.108234
 30
0.0
 40
2.0
  1
タイプ
 72
     1
 11
268.402017
 21
13.108234
 31
0.0
100
AcDbText
  0
LINE
  5
1B2
100
AcDbEntity
  8
WAKU
 62
     1
100
AcDbLine
 10
339.0
 20
0.0
 30
0.0
 11
339.0
 21
16.0
 31
0.0
  0
LINE
  5
1B3
100
AcDbEntity
  8
WAKU
 62
     3
100
AcDbLine
 10
324.0
 20
0.0
 30
0.0
 11
324.0
 21
16.0
 31
0.0
  0
TEXT
  5
1B4
100
AcDbEntity
  8
ADM
100
AcDbText
 10
327.124406
 20
9.53532
 30
0.0
 40
2.0
  1
A3  1/1
 41
0.8
 72
     1
 11
331.589168
 21
9.53532
 31
0.0
100
AcDbText
  0
TEXT
  5
1B5
100
AcDbEntity
  8
ADM
100
AcDbText
 10
282.928412
 20
1.355293
 30
0.0
 40
2.5
  1
ガラス瓦下地ユニット
 41
0.8
 72
     1
 11
294.528412
 21
1.355293
 31
0.0
100
AcDbText
  0
TEXT
  5
1B6
100
AcDbEntity
  8
WAKU
 62
     2
100
AcDbText
 10
324.608338
 20
6.0
 30
0.0
 40
1.5
  1
ファイルＮｏ．
 72
     1
 11
330.258338
 21
6.0
 31
0.0
100
AcDbText
  0
TEXT
  5
1B7
100
AcDbEntity
  8
ADM
100
AcDbText
 10
325.113496
 20
0.676257
 30
0.0
 40
2.0
  1
A-151-03
 41
0.8
 72
     1
 11
331.513496
 21
0.676257
 31
0.0
100
AcDbText
  0
TEXT
  5
1B8
100
AcDbEntity
  8
ADM
100
AcDbText
 10
286.328412
 20
9.355293
 30
0.0
 40
2.5
  1
ダウンロード用
 41
0.8
 72
     1
 11
294.528412
 21
9.355293
 31
0.0
100
AcDbText
  0
TEXT
  5
1B9
100
AcDbEntity
  8
WAKU
 62
     2
100
AcDbText
 10
324.87704
 20
14.0
 30
0.0
 40
1.5
  1
縮 尺
100
AcDbText
  0
LINE
  5
1BA
100
AcDbEntity
  8
ALS
100
AcDbLine
 10
217.165092
 20
99.250488
 30
0.0
 11
308.426687
 21
135.752521
 31
0.0
  0
TEXT
  5
1BB
100
AcDbEntity
  8
0
 62
     0
100
AcDbText
 10
220.357728
 20
73.149983
 30
0.0
 40
3.0
  1
H - 5
 50
21.8
100
AcDbText
1001
ACAD
1000
MTEXTBEGIN
1070
    73
1070
     1
1070
    44
1040
1.0
1070
    74
1070
     0
1000
MTEXTEND
  0
TEXT
  5
1BC
100
AcDbEntity
  8
0
 62
     0
100
AcDbText
 10
230.438219
 20
68.565713
 30
0.0
 40
3.0
  1
H
 50
21.8
100
AcDbText
1001
ACAD
1000
MTEXTBEGIN
1070
    73
1070
     1
1070
    44
1040
1.0
1070
    74
1070
     0
1000
MTEXTEND
  0
LINE
  5
1BD
100
AcDbEntity
  8
ADM
 62
     0
100
AcDbLine
 10
303.196815
 20
113.82241
 30
0.0
 11
309.696215
 21
116.421985
 31
0.0
1001
ACAD
1000
RTLwPs
1070
   158
  0
ARC
  5
1BE
100
AcDbEntity
  8
AHJ
  6
BYBLOCK
 62
     0
100
AcDbCircle
 10
302.268329
 20
113.451042
 30
0.0
 40
0.25
100
AcDbArc
 50
21.8
 51
201.8
  0
LINE
  5
1BF
100
AcDbEntity
  8
AHJ
  6
BYBLOCK
 62
     0
100
AcDbLine
 10
302.732572
 20
113.636726
 30
0.0
 11
303.196815
 21
113.82241
 31
0.0
  0
ARC
  5
1C0
100
AcDbEntity
  8
AHJ
  6
BYBLOCK
 62
     0
100
AcDbCircle
 10
302.268329
 20
113.451042
 30
0.0
 40
0.25
100
AcDbArc
 50
201.8
 51
21.8
  0
TEXT
  5
1C1
100
AcDbEntity
  8
0
 62
     0
100
AcDbText
 10
304.815059
 20
115.546684
 30
0.0
 40
3.0
  1
9
 50
21.8
100
AcDbText
1001
ACAD
1000
MTEXTBEGIN
1070
    73
1070
     1
1070
    44
1040
1.0
1070
    74
1070
     0
1000
MTEXTEND
  0
POINT
  5
1C2
100
AcDbEntity
  8
DEFPOINTS
 62
     0
100
AcDbPoint
 10
308.426687
 20
135.752521
 30
0.0
  0
LINE
  5
1C3
100
AcDbEntity
  8
AHJ
  6
BYBLOCK
 62
     0
100
AcDbLine
 10
300.118792
 20
144.406373
 30
0.0
 11
300.583035
 21
144.592057
 31
0.0
  0
ARC
  5
1C4
100
AcDbEntity
  8
AHJ
  6
BYBLOCK
 62
     0
100
AcDbCircle
 10
299.654549
 20
144.220689
 30
0.0
 40
0.25
100
AcDbArc
 50
201.8
 51
21.8
  0
ARC
  5
1C5
100
AcDbEntity
  8
AHJ
  6
BYBLOCK
 62
     0
100
AcDbCircle
 10
299.654549
 20
144.220689
 30
0.0
 40
0.25
100
AcDbArc
 50
21.8
 51
201.8
  0
POINT
  5
1C6
100
AcDbEntity
  8
DEFPOINTS
 62
     0
100
AcDbPoint
 10
299.654549
 20
144.220689
 30
0.0
  0
ARC
  5
1C7
100
AcDbEntity
  8
AHJ
  6
BYBLOCK
 62
     0
100
AcDbCircle
 10
304.296978
 20
146.077528
 30
0.0
 40
0.25
100
AcDbArc
 50
21.8
 51
201.8
  0
ARC
  5
1C8
100
AcDbEntity
  8
AHJ
  6
BYBLOCK
 62
     0
100
AcDbCircle
 10
304.296978
 20
146.077528
 30
0.0
 40
0.25
100
AcDbArc
 50
201.8
 51
21.8
  0
LINE
  5
1C9
100
AcDbEntity
  8
AHJ
  6
BYBLOCK
 62
     0
100
AcDbLine
 10
303.832736
 20
145.891844
 30
0.0
 11
303.368493
 21
145.70616
 31
0.0
  0
LINE
  5
1CA
100
AcDbEntity
  8
ADM
 62
     0
100
AcDbLine
 10
303.368493
 20
145.70616
 30
0.0
 11
300.583035
 21
144.592057
 31
0.0
1001
ACAD
1000
RTLwPs
1070
   158
  0
LINE
  5
1CB
100
AcDbEntity
  8
ALS
 62
     0
100
AcDbLine
 10
309.169422
 20
133.89555
 30
0.0
 11
321.654657
 21
102.680236
 31
0.0
1001
ACAD
1000
RTLwPs
1070
   158
  0
ARC
  5
1CC
100
AcDbEntity
  8
AHJ
  6
BYBLOCK
 62
     0
100
AcDbCircle
 10
313.595644
 20
109.365466
 30
0.0
 40
0.25
100
AcDbArc
 50
21.8
 51
201.8
  0
ARC
  5
1CD
100
AcDbEntity
  8
AHJ
  6
BYBLOCK
 62
     0
100
AcDbCircle
 10
313.595644
 20
109.365466
 30
0.0
 40
0.25
100
AcDbArc
 50
201.8
 51
21.8
  0
LINE
  5
1CE
100
AcDbEntity
  8
AHJ
  6
BYBLOCK
 62
     0
100
AcDbLine
 10
313.131401
 20
109.179782
 30
0.0
 11
312.667158
 21
108.994098
 31
0.0
  0
LINE
  5
1CF
100
AcDbEntity
  8
AHJ
  6
BYBLOCK
 62
     0
100
AcDbLine
 10
320.744773
 20
103.608735
 30
0.0
 11
320.28053
 21
103.423051
 31
0.0
  0
ARC
  5
1D0
100
AcDbEntity
  8
AHJ
  6
BYBLOCK
 62
     0
100
AcDbCircle
 10
321.209016
 20
103.794419
 30
0.0
 40
0.25
100
AcDbArc
 50
21.8
 51
201.8
  0
ARC
  5
1D1
100
AcDbEntity
  8
AHJ
  6
BYBLOCK
 62
     0
100
AcDbCircle
 10
321.209016
 20
103.794419
 30
0.0
 40
0.25
100
AcDbArc
 50
201.8
 51
21.8
  0
POINT
  5
1D2
100
AcDbEntity
  8
DEFPOINTS
 62
     0
100
AcDbPoint
 10
321.209016
 20
103.794419
 30
0.0
  0
ARC
  5
1D3
100
AcDbEntity
  8
AHJ
  6
BYBLOCK
 62
     0
100
AcDbCircle
 10
310.624701
 20
116.793353
 30
0.0
 40
0.25
100
AcDbArc
 50
21.8
 51
201.8
  0
ARC
  5
1D4
100
AcDbEntity
  8
AHJ
  6
BYBLOCK
 62
     0
100
AcDbCircle
 10
310.624701
 20
116.793353
 30
0.0
 40
0.25
100
AcDbArc
 50
201.8
 51
21.8
  0
LINE
  5
1D5
100
AcDbEntity
  8
AHJ
  6
BYBLOCK
 62
     0
100
AcDbLine
 10
310.160458
 20
116.607669
 30
0.0
 11
309.696215
 21
116.421985
 31
0.0
  0
POINT
  5
1D6
100
AcDbEntity
  8
DEFPOINTS
 62
     0
100
AcDbPoint
 10
310.624701
 20
116.793353
 30
0.0
  0
LINE
  5
1D7
100
AcDbEntity
  8
WAKU
 62
     3
100
AcDbLine
 10
369.0
 20
0.0
 30
0.0
 11
369.0
 21
16.0
 31
0.0
  0
LINE
  5
1D8
100
AcDbEntity
  8
WAKU
 62
     1
100
AcDbLine
 10
384.0
 20
0.0
 30
0.0
 11
384.0
 21
16.0
 31
0.0
  0
LINE
  5
1D9
100
AcDbEntity
  8
WAKU
 62
     1
100
AcDbLine
 10
346.5
 20
0.0
 30
0.0
 11
346.5
 21
16.0
 31
0.0
  0
LINE
  5
1DA
100
AcDbEntity
  8
WAKU
 62
     1
100
AcDbLine
 10
354.0
 20
0.0
 30
0.0
 11
354.0
 21
16.0
 31
0.0
  0
TEXT
  5
1DB
100
AcDbEntity
  8
ADM
100
AcDbText
 10
354.372697
 20
8.837169
 30
0.0
 40
1.5
  1
S59
 41
0.8
100
AcDbText
  0
TEXT
  5
1DC
100
AcDbEntity
  8
ADM
100
AcDbText
 10
358.086359
 20
8.792069
 30
0.0
 40
1.25
  1
年
 72
     1
 11
358.669692
 21
8.792069
 31
0.0
100
AcDbText
  0
TEXT
  5
1DD
100
AcDbEntity
  8
ADM
100
AcDbText
 10
358.086359
 20
8.792069
 30
0.0
 40
1.25
  1
年
 72
     1
 11
358.669692
 21
8.792069
 31
0.0
100
AcDbText
  0
TEXT
  5
1DE
100
AcDbEntity
  8
ADM
100
AcDbText
 10
364.43496
 20
8.837169
 30
0.0
 40
1.5
  1
18
 41
0.8
 72
     1
 11
365.663531
 21
8.837169
 31
0.0
100
AcDbText
  0
TEXT
  5
1DF
100
AcDbEntity
  8
ADM
100
AcDbText
 10
360.303647
 20
8.837169
 30
0.0
 40
1.5
  1
5
 41
0.8
 72
     1
 11
360.875075
 21
8.837169
 31
0.0
100
AcDbText
  0
TEXT
  5
1E0
100
AcDbEntity
  8
ADM
100
AcDbText
 10
362.562868
 20
8.792069
 30
0.0
 40
1.25
  1
月
 72
     1
 11
363.062868
 21
8.792069
 31
0.0
100
AcDbText
  0
TEXT
  5
1E1
100
AcDbEntity
  8
ADM
100
AcDbText
 10
367.236589
 20
8.792069
 30
0.0
 40
1.25
  1
日
 72
     1
 11
367.819922
 21
8.792069
 31
0.0
100
AcDbText
  0
TEXT
  5
1E2
100
AcDbEntity
  8
WAKU
 62
     2
100
AcDbText
 10
370.15
 20
6.0
 30
0.0
 40
1.5
  1
図面ＮＯ．
 72
     1
 11
374.0
 21
6.0
 31
0.0
100
AcDbText
  0
TEXT
  5
1E3
100
AcDbEntity
  8
ADM
100
AcDbText
 10
369.734703
 20
1.894013
 30
0.0
 40
2.5
  1
A-151-03
 41
0.7
 72
     1
 11
376.734703
 21
1.894013
 31
0.0
100
AcDbText
  0
TEXT
  5
1E4
100
AcDbEntity
  8
WAKU
 62
     2
100
AcDbText
 10
354.876198
 20
6.0
 30
0.0
 40
1.5
  1
修正日
 72
     1
 11
357.276198
 21
6.0
 31
0.0
100
AcDbText
  0
TEXT
  5
1E5
100
AcDbEntity
  8
ADM
100
AcDbText
 10
354.372697
 20
0.837169
 30
0.0
 40
1.5
  1
H15
 41
0.8
100
AcDbText
  0
LINE
  5
1E6
100
AcDbEntity
  8
WAKU
 62
     1
100
AcDbLine
 10
346.5
 20
5.5
 30
0.0
 11
354.0
 21
5.5
 31
0.0
  0
TEXT
  5
1E7
100
AcDbEntity
  8
WAKU
 62
     2
100
AcDbText
 10
348.0
 20
6.0
 30
0.0
 40
1.5
  1
製　図
100
AcDbText
  0
TEXT
  5
1E8
100
AcDbEntity
  8
ADM
100
AcDbText
 10
364.43496
 20
0.837169
 30
0.0
 40
1.5
  1
15
 41
0.8
 72
     1
 11
365.663531
 21
0.837169
 31
0.0
100
AcDbText
  0
TEXT
  5
1E9
100
AcDbEntity
  8
ADM
100
AcDbText
 10
360.303647
 20
0.837169
 30
0.0
 40
1.5
  1
5
 41
0.8
 72
     1
 11
360.875075
 21
0.837169
 31
0.0
100
AcDbText
  0
TEXT
  5
1EA
100
AcDbEntity
  8
ADM
100
AcDbText
 10
358.086359
 20
0.792069
 30
0.0
 40
1.25
  1
年
 72
     1
 11
358.669692
 21
0.792069
 31
0.0
100
AcDbText
  0
TEXT
  5
1EB
100
AcDbEntity
  8
ADM
100
AcDbText
 10
362.562868
 20
0.792069
 30
0.0
 40
1.25
  1
月
 72
     1
 11
363.062868
 21
0.792069
 31
0.0
100
AcDbText
  0
TEXT
  5
1EC
100
AcDbEntity
  8
ADM
100
AcDbText
 10
367.236589
 20
0.792069
 30
0.0
 40
1.25
  1
日
 72
     1
 11
367.819922
 21
0.792069
 31
0.0
100
AcDbText
  0
TEXT
  5
1ED
100
AcDbEntity
  8
ADM
100
AcDbText
 10
385.462415
 20
1.728182
 30
0.0
 40
2.0
  1
8/36 葉
 41
0.8
 72
     1
 11
389.927177
 21
1.728182
 31
0.0
100
AcDbText
  0
TEXT
  5
1EE
100
AcDbEntity
  8
ADM
100
AcDbText
 10
385.987703
 20
5.335326
 30
0.0
 40
2.5
  1
総数
 41
0.8
 72
     1
 11
388.121036
 21
5.335326
 31
0.0
100
AcDbText
  0
TEXT
  5
1EF
100
AcDbEntity
  8
WAKU
 62
     2
100
AcDbText
 10
370.050699
 20
14.0
 30
0.0
 40
1.5
  1
整理番号
100
AcDbText
  0
TEXT
  5
1F0
100
AcDbEntity
  8
WAKU
 62
     2
100
AcDbText
 10
354.876198
 20
14.0
 30
0.0
 40
1.5
  1
作図日
 72
     1
 11
357.276198
 21
14.0
 31
0.0
100
AcDbText
  0
TEXT
  5
1F1
100
AcDbEntity
  8
WAKU
 62
     2
100
AcDbText
 10
348.0
 20
14.0
 30
0.0
 40
1.5
  1
担  当
100
AcDbText
  0
TEXT
  5
1F2
100
AcDbEntity
  8
ADM
100
AcDbText
 10
342.499139
 20
45.211009
 30
0.0
 40
3.0
  1
屋根勾配4寸
 50
21.8
100
AcDbText
  0
TEXT
  5
1F3
100
AcDbEntity
  8
ADM
100
AcDbText
 10
349.823313
 20
36.169007
 30
0.0
 40
3.0
  1
10
100
AcDbText
  0
LINE
  5
1F4
100
AcDbEntity
  8
ADM
100
AcDbLine
 10
368.175758
 20
41.659667
 30
0.0
 11
368.175758
 21
53.659667
 31
0.0
  0
TEXT
  5
1F5
100
AcDbEntity
  8
ADM
100
AcDbText
 10
370.357107
 20
45.762539
 30
0.0
 40
3.0
  1
4
100
AcDbText
  0
LINE
  5
1F6
100
AcDbEntity
  8
ADM
 62
     0
100
AcDbLine
 10
289.858427
 20
187.561977
 30
0.0
 11
341.94144
 21
208.393696
 31
0.0
1001
ACAD
1000
RTLwPs
1070
   158
  0
LINE
  5
1F7
100
AcDbEntity
  8
ALS
100
AcDbLine
 10
275.003581
 20
219.316246
 30
0.0
 11
345.56612
 21
150.607235
 31
0.0
  0
LINE
  5
1F8
100
AcDbEntity
  8
1MOKU
100
AcDbLine
 10
312.143014
 20
234.170959
 30
0.0
 11
345.56612
 21
150.607235
 31
0.0
  0
ARC
  5
1F9
100
AcDbEntity
  8
AHJ
  6
BYBLOCK
 62
     0
100
AcDbCircle
 10
280.138788
 20
241.483039
 30
0.0
 40
0.25
100
AcDbArc
 50
21.8
 51
201.8
  0
ARC
  5
1FA
100
AcDbEntity
  8
AHJ
  6
BYBLOCK
 62
     0
100
AcDbCircle
 10
280.138788
 20
241.483039
 30
0.0
 40
0.25
100
AcDbArc
 50
201.8
 51
21.8
  0
ARC
  5
1FB
100
AcDbEntity
  8
AHJ
  6
BYBLOCK
 62
     0
100
AcDbCircle
 10
236.128983
 20
241.112731
 30
0.0
 40
0.25
100
AcDbArc
 50
21.8
 51
201.8
  0
LINE
  5
1FC
100
AcDbEntity
  8
AHJ
  6
BYBLOCK
 62
     0
100
AcDbLine
 10
236.593226
 20
241.298414
 30
0.0
 11
237.057469
 21
241.484098
 31
0.0
  0
ARC
  5
1FD
100
AcDbEntity
  8
1BIS
100
AcDbCircle
 10
329.613636
 20
242.845247
 30
0.0
 40
4.052761
100
AcDbArc
 50
331.865989
 51
65.050832
  0
LINE
  5
1FE
100
AcDbEntity
  8
ADM
 62
     0
100
AcDbLine
 10
281.778661
 20
237.383063
 30
0.0
 11
279.693146
 21
242.597222
 31
0.0
1001
ACAD
1000
RTLwPs
1070
   158
  0
LINE
  5
1FF
100
AcDbEntity
  8
ADM
 62
     0
100
AcDbLine
 10
289.488252
 20
236.956947
 30
0.0
 11
277.279719
 21
267.480456
 31
0.0
1001
ACAD
1000
RTLwPs
1070
   158
  0
LINE
  5
200
100
AcDbEntity
  8
ADM
 62
     0
100
AcDbLine
 10
282.988851
 20
234.357372
 30
0.0
 11
270.780318
 21
264.880881
 31
0.0
1001
ACAD
1000
RTLwPs
1070
   158
  0
LINE
  5
201
100
AcDbEntity
  8
ADM
 62
     0
100
AcDbLine
 10
266.276106
 20
227.672751
 30
0.0
 11
257.038516
 21
250.768374
 31
0.0
1001
ACAD
1000
RTLwPs
1070
   158
  0
LINE
  5
202
100
AcDbEntity
  8
ADM
 62
     0
100
AcDbLine
 10
282.988851
 20
234.357372
 30
0.0
 11
273.751261
 21
257.452995
 31
0.0
1001
ACAD
1000
RTLwPs
1070
   158
  0
LINE
  5
203
100
AcDbEntity
  8
ADM
 62
     0
100
AcDbLine
 10
267.018842
 20
225.815779
 30
0.0
 11
257.038516
 21
250.768374
 31
0.0
1001
ACAD
1000
RTLwPs
1070
   158
  0
LINE
  5
204
100
AcDbEntity
  8
ADM
 62
     0
100
AcDbLine
 10
245.663668
 20
217.274319
 30
0.0
 11
235.683342
 21
242.226914
 31
0.0
1001
ACAD
1000
RTLwPs
1070
   158
  0
LINE
  5
205
100
AcDbEntity
  8
ADM
 62
     0
100
AcDbLine
 10
283.731587
 20
232.5004
 30
0.0
 11
270.780318
 21
264.880881
 31
0.0
1001
ACAD
1000
RTLwPs
1070
   158
  0
LINE
  5
206
100
AcDbEntity
  8
ADM
 62
     0
100
AcDbLine
 10
245.663668
 20
217.274319
 30
0.0
 11
232.712399
 21
249.6548
 31
0.0
1001
ACAD
1000
RTLwPs
1070
   158
  0
LINE
  5
207
100
AcDbEntity
  8
ADM
 62
     0
100
AcDbLine
 10
292.830562
 20
228.600574
 30
0.0
 11
283.221604
 21
252.624683
 31
0.0
1001
ACAD
1000
RTLwPs
1070
   158
  0
LINE
  5
208
100
AcDbEntity
  8
ADM
 62
     0
100
AcDbLine
 10
274.260846
 20
221.173217
 30
0.0
 11
264.651888
 21
245.197326
 31
0.0
1001
ACAD
1000
RTLwPs
1070
   158
  0
LINE
  5
209
100
AcDbEntity
  8
ALS
 62
     0
100
AcDbLine
 10
245.663668
 20
217.274319
 30
0.0
 11
232.712399
 21
249.6548
 31
0.0
1001
ACAD
1000
RTLwPs
1070
   158
  0
LINE
  5
20A
100
AcDbEntity
  8
1BUHIN
  6
HIDDEN
 48
0.5
100
AcDbLine
 10
271.273691
 20
228.641636
 30
0.0
 11
328.907394
 21
251.693473
 31
0.0
  0
LINE
  5
20B
100
AcDbEntity
  8
1BUHIN
  6
HIDDEN
 48
0.5
100
AcDbLine
 10
271.492427
 20
228.094759
 30
0.0
 11
304.899467
 21
241.456622
 31
0.0
  0
LINE
  5
20C
100
AcDbEntity
  8
1MOKU
100
AcDbLine
 10
293.573298
 20
226.743602
 30
0.0
 11
333.665863
 21
242.779485
 31
0.0
  0
LINE
  5
20D
100
AcDbEntity
  8
1MOKU
100
AcDbLine
 10
290.230987
 20
235.099975
 30
0.0
 11
328.756428
 21
250.509052
 31
0.0
  0
ARC
  5
20E
100
AcDbEntity
  8
AHJ
  6
BYBLOCK
 62
     0
100
AcDbCircle
 10
275.496358
 20
239.626199
 30
0.0
 40
0.25
100
AcDbArc
 50
201.8
 51
21.8
  0
ARC
  5
20F
100
AcDbEntity
  8
AHJ
  6
BYBLOCK
 62
     0
100
AcDbCircle
 10
275.496358
 20
239.626199
 30
0.0
 40
0.25
100
AcDbArc
 50
21.8
 51
201.8
  0
LINE
  5
210
100
AcDbEntity
  8
1AL
100
AcDbLine
 10
274.818096
 20
227.858236
 30
0.0
 11
276.674935
 21
223.215807
 31
0.0
  0
LINE
  5
211
100
AcDbEntity
  8
1AL
100
AcDbLine
 10
261.819162
 20
217.273921
 30
0.0
 11
276.674935
 21
223.215807
 31
0.0
  0
LINE
  5
212
100
AcDbEntity
  8
1AL
100
AcDbLine
 10
264.511745
 20
217.273855
 30
0.0
 11
277.046303
 21
222.287321
 31
0.0
  0
LINE
  5
213
100
AcDbEntity
  8
1AL
100
AcDbLine
 10
271.661271
 20
227.672618
 30
0.0
 11
283.731587
 21
232.5004
 31
0.0
  0
ARC
  5
214
100
AcDbEntity
  8
1AL
100
AcDbCircle
 10
275.28161
 20
198.425513
 30
0.0
 40
0.5
100
AcDbArc
 50
291.8
 51
111.8
  0
LINE
  5
215
100
AcDbEntity
  8
1AL
100
AcDbLine
 10
274.352959
 20
191.32269
 30
0.0
 11
277.370538
 21
192.529635
 31
0.0
  0
LINE
  5
216
100
AcDbEntity
  8
1AL
100
AcDbLine
 10
275.281379
 20
189.001475
 30
0.0
 11
278.415018
 21
190.254841
 31
0.0
  0
LINE
  5
217
100
AcDbEntity
  8
1AL
100
AcDbLine
 10
272.867421
 20
192.34405
 30
0.0
 11
276.813486
 21
193.922364
 31
0.0
  0
LINE
  5
218
100
AcDbEntity
  8
ACL
  6
CENTER
100
AcDbLine
 10
257.595923
 20
188.120676
 30
0.0
 11
279.489141
 21
196.877338
 31
0.0
  0
LINE
  5
219
100
AcDbEntity
  8
ACL
  6
CENTER
100
AcDbLine
 10
267.275903
 20
187.145791
 30
0.0
 11
278.396189
 21
191.593588
 31
0.0
  0
LINE
  5
21A
100
AcDbEntity
  8
1AL
100
AcDbLine
 10
274.817103
 20
187.4695
 30
0.0
 11
276.2283
 21
183.941254
 31
0.0
  0
LINE
  5
21B
100
AcDbEntity
  8
1AL
100
AcDbLine
 10
275.002654
 20
181.620092
 30
0.0
 11
278.716597
 21
183.105563
 31
0.0
  0
LINE
  5
21C
100
AcDbEntity
  8
1AL
100
AcDbLine
 10
275.002787
 20
187.005257
 30
0.0
 11
276.488258
 21
183.291314
 31
0.0
  0
LINE
  5
21D
100
AcDbEntity
  8
ADM
 62
     0
100
AcDbLine
 10
277.136232
 20
235.526224
 30
0.0
 11
275.050717
 21
240.740382
 31
0.0
1001
ACAD
1000
RTLwPs
1070
   158
  0
LINE
  5
21E
100
AcDbEntity
  8
1MOKU
100
AcDbLine
 10
275.003581
 20
219.316246
 30
0.0
 11
313.999986
 21
234.913695
 31
0.0
  0
LINE
  5
21F
100
AcDbEntity
  8
1AL
100
AcDbLine
 10
269.989255
 20
196.847233
 30
0.0
 11
273.888617
 21
187.098132
 31
0.0
  0
LINE
  5
220
100
AcDbEntity
  8
1AL
100
AcDbLine
 10
271.289108
 20
196.290115
 30
0.0
 11
272.867421
 21
192.34405
 31
0.0
  0
LINE
  5
221
100
AcDbEntity
  8
1AL
100
AcDbLine
 10
269.896413
 20
197.079355
 30
0.0
 11
274.074301
 21
186.633889
 31
0.0
  0
LINE
  5
222
100
AcDbEntity
  8
1AL
100
AcDbLine
 10
268.318033
 20
198.332837
 30
0.0
 11
273.702867
 21
184.869793
 31
0.0
  0
LINE
  5
223
100
AcDbEntity
  8
ACL
  6
CENTER2
100
AcDbLine
 10
227.341854
 20
166.143193
 30
0.0
 11
223.541139
 21
175.645657
 31
0.0
  0
LINE
  5
224
100
AcDbEntity
  8
ACL
  6
CENTER2
100
AcDbLine
 10
217.906014
 20
167.399244
 30
0.0
 11
233.050844
 21
173.456744
 31
0.0
  0
LINE
  5
225
100
AcDbEntity
  8
1AL
100
AcDbLine
 10
274.259918
 20
183.477064
 30
0.0
 11
275.002654
 21
181.620092
 31
0.0
  0
POINT
  5
226
100
AcDbEntity
  8
DEFPOINTS
 62
     0
100
AcDbPoint
 10
275.002654
 20
181.620092
 30
0.0
  0
ARC
  5
227
100
AcDbEntity
  8
1AL
100
AcDbCircle
 10
275.095695
 20
189.465718
 30
0.0
 40
0.5
100
AcDbArc
 50
201.8
 51
291.8
  0
LINE
  5
228
100
AcDbEntity
  8
1AL
100
AcDbLine
 10
274.817103
 20
187.4695
 30
0.0
 11
273.888617
 21
187.098132
 31
0.0
  0
LINE
  5
229
100
AcDbEntity
  8
1AL
100
AcDbLine
 10
274.074301
 20
186.633889
 30
0.0
 11
275.002787
 21
187.005257
 31
0.0
  0
LINE
  5
22A
100
AcDbEntity
  8
1AL
100
AcDbLine
 10
274.631352
 20
185.24116
 30
0.0
 11
275.188404
 21
183.848432
 31
0.0
  0
LINE
  5
22B
100
AcDbEntity
  8
1AL
100
AcDbLine
 10
274.259918
 20
183.477064
 30
0.0
 11
275.188404
 21
183.848432
 31
0.0
  0
LINE
  5
22C
100
AcDbEntity
  8
1AL
100
AcDbLine
 10
273.702867
 20
184.869793
 30
0.0
 11
274.631352
 21
185.24116
 31
0.0
  0
ARC
  5
22D
100
AcDbEntity
  8
1AL
100
AcDbCircle
 10
274.538643
 20
190.858447
 30
0.0
 40
0.5
100
AcDbArc
 50
111.8
 51
201.8
  0
LINE
  5
22E
100
AcDbEntity
  8
1AL
100
AcDbLine
 10
274.0744
 20
190.672763
 30
0.0
 11
274.631452
 21
189.280034
 31
0.0
  0
ARC
  5
22F
100
AcDbEntity
  8
AHJ
  6
BYBLOCK
 62
     0
100
AcDbCircle
 10
236.128983
 20
241.112731
 30
0.0
 40
0.25
100
AcDbArc
 50
201.8
 51
21.8
  0
LINE
  5
230
100
AcDbEntity
  8
1AL
100
AcDbLine
 10
259.776573
 20
219.688011
 30
0.0
 11
262.376148
 21
213.18861
 31
0.0
  0
LINE
  5
231
100
AcDbEntity
  8
1AL
100
AcDbLine
 10
260.333691
 20
220.987865
 30
0.0
 11
261.819162
 21
217.273921
 31
0.0
  0
LINE
  5
232
100
AcDbEntity
  8
1AL
100
AcDbLine
 10
250.955957
 20
216.160017
 30
0.0
 11
259.776573
 21
219.688011
 31
0.0
  0
LINE
  5
233
100
AcDbEntity
  8
1AL
100
AcDbLine
 10
246.406403
 20
215.417347
 30
0.0
 11
260.333691
 21
220.987865
 31
0.0
  0
LINE
  5
234
100
AcDbEntity
  8
1AL
100
AcDbLine
 10
251.419935
 20
205.575371
 30
0.0
 11
261.169037
 21
209.474733
 31
0.0
  0
LINE
  5
235
100
AcDbEntity
  8
1AL
100
AcDbLine
 10
251.51281
 20
206.689541
 30
0.0
 11
262.190397
 21
210.960271
 31
0.0
  0
LINE
  5
236
100
AcDbEntity
  8
ACL
  6
CENTER
100
AcDbLine
 10
251.282669
 20
203.904935
 30
0.0
 11
273.175888
 21
212.661597
 31
0.0
  0
LINE
  5
237
100
AcDbEntity
  8
1AL
100
AcDbLine
 10
250.120082
 20
206.132489
 30
0.0
 11
248.407149
 21
210.415125
 31
0.0
  0
ARC
  5
238
100
AcDbEntity
  8
1AL
100
AcDbCircle
 10
251.048568
 20
206.503857
 30
0.0
 40
1.0
100
AcDbArc
 50
201.8
 51
291.8
  0
ARC
  5
239
100
AcDbEntity
  8
1AL
100
AcDbCircle
 10
251.327127
 20
207.153784
 30
0.0
 40
0.5
100
AcDbArc
 50
201.8
 51
291.8
  0
LINE
  5
23A
100
AcDbEntity
  8
1AL
100
AcDbLine
 10
250.027339
 20
210.403484
 30
0.0
 11
256.990983
 21
213.188743
 31
0.0
  0
ARC
  5
23B
100
AcDbEntity
  8
1AL
100
AcDbCircle
 10
258.383314
 20
197.5903
 30
0.0
 40
17.0
100
AcDbArc
 50
96.450523
 51
124.435625
  0
ARC
  5
23C
100
AcDbEntity
  8
1AL
100
AcDbCircle
 10
250.677398
 20
215.51009
 30
0.0
 40
0.5
100
AcDbArc
 50
201.8
 51
21.8
  0
LINE
  5
23D
100
AcDbEntity
  8
1AL
100
AcDbLine
 10
251.141641
 20
215.695774
 30
0.0
 11
250.955957
 21
216.160017
 31
0.0
  0
ARC
  5
23E
100
AcDbEntity
  8
1AL
100
AcDbCircle
 10
249.335635
 20
210.786493
 30
0.0
 40
1.0
100
AcDbArc
 50
124.435625
 51
201.8
  0
LINE
  5
23F
100
AcDbEntity
  8
1AL
100
AcDbLine
 10
250.862884
 20
206.9681
 30
0.0
 11
249.74878
 21
209.753557
 31
0.0
  0
ARC
  5
240
100
AcDbEntity
  8
1AL
100
AcDbCircle
 10
250.213023
 20
209.939241
 30
0.0
 40
0.5
100
AcDbArc
 50
111.8
 51
201.8
  0
LINE
  5
241
100
AcDbEntity
  8
1AL
100
AcDbLine
 10
246.963455
 20
214.024618
 30
0.0
 11
246.406403
 21
215.417347
 31
0.0
  0
POINT
  5
242
100
AcDbEntity
  8
DEFPOINTS
 62
     0
100
AcDbPoint
 10
246.406403
 20
215.417347
 30
0.0
  0
POINT
  5
243
100
AcDbEntity
  8
DEFPOINTS
 62
     0
100
AcDbPoint
 10
246.406403
 20
215.417347
 30
0.0
  0
POINT
  5
244
100
AcDbEntity
  8
DEFPOINTS
 62
     0
100
AcDbPoint
 10
246.406403
 20
215.417347
 30
0.0
  0
LINE
  5
245
100
AcDbEntity
  8
1AL
100
AcDbLine
 10
247.706257
 20
214.860229
 30
0.0
 11
250.027472
 21
215.788649
 31
0.0
  0
LINE
  5
246
100
AcDbEntity
  8
1AL
100
AcDbLine
 10
247.891941
 20
214.395986
 30
0.0
 11
247.706257
 21
214.860229
 31
0.0
  0
LINE
  5
247
100
AcDbEntity
  8
1AL
100
AcDbLine
 10
250.213156
 20
215.324406
 30
0.0
 11
250.027472
 21
215.788649
 31
0.0
  0
ARC
  5
248
100
AcDbEntity
  8
1AL
100
AcDbCircle
 10
247.427698
 20
214.210302
 30
0.0
 40
0.5
100
AcDbArc
 50
201.8
 51
21.8
  0
LINE
  5
249
100
AcDbEntity
  8
1AL
100
AcDbLine
 10
256.990983
 20
213.188743
 30
0.0
 11
256.473446
 21
214.482677
 31
0.0
  0
LINE
  5
24A
100
AcDbEntity
  8
1BUHIN
100
AcDbLine
 10
255.505512
 20
216.902686
 30
0.0
 11
256.248247
 21
215.045714
 31
0.0
  0
LINE
  5
24B
100
AcDbEntity
  8
1AL
100
AcDbLine
 10
266.795359
 20
199.447046
 30
0.0
 11
262.710312
 21
209.660391
 31
0.0
  0
LINE
  5
24C
100
AcDbEntity
  8
1AL
100
AcDbLine
 10
266.089694
 20
198.518587
 30
0.0
 11
261.818963
 21
209.196174
 31
0.0
  0
ARC
  5
24D
100
AcDbEntity
  8
1AL
100
AcDbCircle
 10
268.22539
 20
206.642706
 30
0.0
 40
0.5
100
AcDbArc
 50
111.8
 51
201.8
  0
LINE
  5
24E
100
AcDbEntity
  8
ACL
  6
CENTER
100
AcDbLine
 10
260.96265
 20
202.93005
 30
0.0
 11
272.082936
 21
207.377847
 31
0.0
  0
LINE
  5
24F
100
AcDbEntity
  8
1AL
100
AcDbLine
 10
264.418737
 20
210.774521
 30
0.0
 11
267.575364
 21
202.882391
 31
0.0
  0
LINE
  5
250
100
AcDbEntity
  8
1AL
100
AcDbLine
 10
262.376148
 20
213.18861
 30
0.0
 11
267.760981
 21
199.725566
 31
0.0
  0
LINE
  5
251
100
AcDbEntity
  8
1AL
100
AcDbLine
 10
264.233053
 20
211.238763
 30
0.0
 11
267.668206
 21
202.65027
 31
0.0
  0
LINE
  5
252
100
AcDbEntity
  8
1AL
100
AcDbLine
 10
269.246519
 20
198.704205
 30
0.0
 11
267.389547
 21
197.961469
 31
0.0
  0
ARC
  5
253
100
AcDbEntity
  8
1AL
100
AcDbCircle
 10
267.259602
 20
199.63273
 30
0.0
 40
0.5
100
AcDbArc
 50
201.8
 51
291.8
  0
ARC
  5
254
100
AcDbEntity
  8
1AL
100
AcDbCircle
 10
267.018179
 20
198.889955
 30
0.0
 40
1.0
100
AcDbArc
 50
201.8
 51
291.8
  0
LINE
  5
255
100
AcDbEntity
  8
1AL
100
AcDbLine
 10
268.503849
 20
203.253759
 30
0.0
 11
270.91774
 21
197.218601
 31
0.0
  0
LINE
  5
256
100
AcDbEntity
  8
1AL
100
AcDbLine
 10
269.432335
 20
203.625127
 30
0.0
 11
271.846226
 21
197.589969
 31
0.0
  0
LINE
  5
257
100
AcDbEntity
  8
1AL
100
AcDbLine
 10
268.596691
 20
203.021637
 30
0.0
 11
270.824898
 21
197.450722
 31
0.0
  0
LINE
  5
258
100
AcDbEntity
  8
1AL
100
AcDbLine
 10
271.289108
 20
196.290115
 30
0.0
 11
275.467294
 21
197.96127
 31
0.0
  0
LINE
  5
259
100
AcDbEntity
  8
1AL
100
AcDbLine
 10
268.838014
 20
199.725539
 30
0.0
 11
267.445285
 21
199.168487
 31
0.0
  0
LINE
  5
25A
100
AcDbEntity
  8
1AL
100
AcDbLine
 10
268.838014
 20
199.725539
 30
0.0
 11
269.246519
 21
198.704205
 31
0.0
  0
LINE
  5
25B
100
AcDbEntity
  8
1AL
100
AcDbLine
 10
269.989255
 20
196.847233
 30
0.0
 11
270.91774
 21
197.218601
 31
0.0
  0
LINE
  5
25C
100
AcDbEntity
  8
1AL
100
AcDbLine
 10
269.246519
 20
198.704205
 30
0.0
 11
268.318033
 21
198.332837
 31
0.0
  0
LINE
  5
25D
100
AcDbEntity
  8
1AL
100
AcDbLine
 10
268.689467
 20
200.096934
 30
0.0
 11
267.760981
 21
199.725566
 31
0.0
  0
LINE
  5
25E
100
AcDbEntity
  8
1AL
100
AcDbLine
 10
268.689467
 20
200.096934
 30
0.0
 11
269.246519
 21
198.704205
 31
0.0
  0
LINE
  5
25F
100
AcDbEntity
  8
1AL
100
AcDbLine
 10
269.896413
 20
197.079355
 30
0.0
 11
270.824898
 21
197.450722
 31
0.0
  0
LINE
  5
260
100
AcDbEntity
  8
1AL
100
AcDbLine
 10
271.846226
 20
197.589969
 30
0.0
 11
275.095927
 21
198.889756
 31
0.0
  0
LINE
  5
261
100
AcDbEntity
  8
1AL
100
AcDbLine
 10
269.432335
 20
203.625127
 30
0.0
 11
272.565975
 21
204.878493
 31
0.0
  0
LINE
  5
262
100
AcDbEntity
  8
1AL
100
AcDbLine
 10
268.968125
 20
204.785734
 30
0.0
 11
272.101765
 21
206.0391
 31
0.0
  0
LINE
  5
263
100
AcDbEntity
  8
1AL
100
AcDbLine
 10
267.761147
 20
206.457022
 30
0.0
 11
268.318199
 21
205.064293
 31
0.0
  0
ARC
  5
264
100
AcDbEntity
  8
1AL
100
AcDbCircle
 10
268.782442
 20
205.249977
 30
0.0
 40
0.5
100
AcDbArc
 50
201.8
 51
291.8
  0
LINE
  5
265
100
AcDbEntity
  8
1AL
100
AcDbLine
 10
267.575364
 20
202.882391
 30
0.0
 11
268.503849
 21
203.253759
 31
0.0
  0
LINE
  5
266
100
AcDbEntity
  8
1AL
100
AcDbLine
 10
267.668206
 20
202.65027
 30
0.0
 11
268.596691
 21
203.021637
 31
0.0
  0
ARC
  5
267
100
AcDbEntity
  8
1AL
100
AcDbCircle
 10
272.33387
 20
205.458797
 30
0.0
 40
0.625
100
AcDbArc
 50
291.8
 51
111.8
  0
LINE
  5
268
100
AcDbEntity
  8
1AL
100
AcDbLine
 10
266.1829
 20
213.095669
 30
0.0
 11
268.968357
 21
214.209772
 31
0.0
  0
LINE
  5
269
100
AcDbEntity
  8
1AL
100
AcDbLine
 10
266.010373
 20
211.949641
 30
0.0
 11
269.339725
 21
213.281287
 31
0.0
  0
LINE
  5
26A
100
AcDbEntity
  8
1AL
100
AcDbLine
 10
266.64701
 20
207.896188
 30
0.0
 11
270.709136
 21
209.520922
 31
0.0
  0
LINE
  5
26B
100
AcDbEntity
  8
1AL
100
AcDbLine
 10
265.254414
 20
212.724301
 30
0.0
 11
264.418737
 21
210.774521
 31
0.0
  0
LINE
  5
26C
100
AcDbEntity
  8
1AL
100
AcDbLine
 10
265.06873
 20
213.188544
 30
0.0
 11
264.233053
 21
211.238763
 31
0.0
  0
ARC
  5
26D
100
AcDbEntity
  8
1AL
100
AcDbCircle
 10
262.450355
 20
210.310331
 30
0.0
 40
0.7
100
AcDbArc
 50
291.8
 51
111.8
  0
ARC
  5
26E
100
AcDbEntity
  8
1AL
100
AcDbCircle
 10
261.354721
 20
209.01049
 30
0.0
 40
0.5
100
AcDbArc
 50
21.8
 51
111.8
  0
LINE
  5
26F
100
AcDbEntity
  8
1AL
100
AcDbLine
 10
266.010373
 20
211.949641
 30
0.0
 11
265.501048
 21
210.761297
 31
0.0
  0
LINE
  5
270
100
AcDbEntity
  8
1AL
100
AcDbLine
 10
265.501048
 20
210.761297
 30
0.0
 11
266.64701
 21
207.896188
 31
0.0
  0
LINE
  5
271
100
AcDbEntity
  8
1AL
100
AcDbLine
 10
262.747582
 20
214.952707
 30
0.0
 11
264.14031
 21
215.509759
 31
0.0
  0
LINE
  5
272
100
AcDbEntity
  8
1AL
100
AcDbLine
 10
264.14031
 20
215.509759
 30
0.0
 11
263.211825
 21
215.138391
 31
0.0
  0
LINE
  5
273
100
AcDbEntity
  8
1AL
100
AcDbLine
 10
262.376148
 20
213.18861
 30
0.0
 11
262.654693
 21
213.300021
 31
0.0
  0
LINE
  5
274
100
AcDbEntity
  8
1AL
100
AcDbLine
 10
262.747582
 20
214.952707
 30
0.0
 11
263.044676
 21
214.209918
 31
0.0
  0
ARC
  5
275
100
AcDbEntity
  8
1AL
100
AcDbCircle
 10
262.394736
 20
213.949961
 30
0.0
 40
0.7
100
AcDbArc
 50
291.8
 51
21.8
  0
LINE
  5
276
100
AcDbEntity
  8
1AL
100
AcDbLine
 10
263.304633
 20
213.559978
 30
0.0
 11
262.376148
 21
213.18861
 31
0.0
  0
LINE
  5
277
100
AcDbEntity
  8
1AL
100
AcDbLine
 10
262.933266
 20
214.488464
 30
0.0
 11
263.304633
 21
213.559978
 31
0.0
  0
ARC
  5
278
100
AcDbEntity
  8
1AL
100
AcDbCircle
 10
263.397509
 20
214.674148
 30
0.0
 40
0.5
100
AcDbArc
 50
111.8
 51
201.8
  0
LINE
  5
279
100
AcDbEntity
  8
1AL
100
AcDbLine
 10
264.14031
 20
215.509759
 30
0.0
 11
265.254414
 21
212.724301
 31
0.0
  0
LINE
  5
27A
100
AcDbEntity
  8
1AL
100
AcDbLine
 10
264.511745
 20
217.273855
 30
0.0
 11
266.1829
 21
213.095669
 31
0.0
  0
LINE
  5
27B
100
AcDbEntity
  8
1AL
100
AcDbLine
 10
264.14031
 20
215.509759
 30
0.0
 11
265.06873
 21
213.188544
 31
0.0
  0
ARC
  5
27C
100
AcDbEntity
  8
1AL
100
AcDbCircle
 10
270.941241
 20
208.940619
 30
0.0
 40
0.625
100
AcDbArc
 50
291.8
 51
111.8
  0
LINE
  5
27D
100
AcDbEntity
  8
1AL
100
AcDbLine
 10
268.039706
 20
207.106949
 30
0.0
 11
271.173346
 21
208.360315
 31
0.0
  0
ARC
  5
27E
100
AcDbEntity
  8
1AL
100
AcDbCircle
 10
269.154041
 20
213.74553
 30
0.0
 40
0.5
100
AcDbArc
 50
291.8
 51
111.8
  0
POINT
  5
27F
100
AcDbEntity
  8
DEFPOINTS
 62
     0
100
AcDbPoint
 10
267.018842
 20
225.815779
 30
0.0
  0
POINT
  5
280
100
AcDbEntity
  8
DEFPOINTS
 62
     0
100
AcDbPoint
 10
275.003581
 20
219.316246
 30
0.0
  0
POINT
  5
281
100
AcDbEntity
  8
DEFPOINTS
 62
     0
100
AcDbPoint
 10
275.003581
 20
219.316246
 30
0.0
  0
POINT
  5
282
100
AcDbEntity
  8
DEFPOINTS
 62
     0
100
AcDbPoint
 10
267.761577
 20
223.958807
 30
0.0
  0
LINE
  5
283
100
AcDbEntity
  8
1AL
100
AcDbLine
 10
271.661271
 20
227.672618
 30
0.0
 11
272.218323
 21
226.279889
 31
0.0
  0
ARC
  5
284
100
AcDbEntity
  8
1AL
100
AcDbCircle
 10
272.682566
 20
226.465573
 30
0.0
 40
0.5
100
AcDbArc
 50
201.8
 51
21.8
  0
LINE
  5
285
100
AcDbEntity
  8
1AL
100
AcDbLine
 10
272.961125
 20
227.1155
 30
0.0
 11
273.146808
 21
226.651257
 31
0.0
  0
LINE
  5
286
100
AcDbEntity
  8
1AL
100
AcDbLine
 10
272.961125
 20
227.1155
 30
0.0
 11
274.818096
 21
227.858236
 31
0.0
  0
POINT
  5
287
100
AcDbEntity
  8
DEFPOINTS
 62
     0
100
AcDbPoint
 10
288.929544
 20
171.035115
 30
0.0
  0
POINT
  5
288
100
AcDbEntity
  8
DEFPOINTS
 62
     0
100
AcDbPoint
 10
288.929544
 20
171.035115
 30
0.0
  0
LINE
  5
289
100
AcDbEntity
  8
1AL
100
AcDbLine
 10
278.716597
 20
183.105563
 30
0.0
 11
278.159546
 21
184.498292
 31
0.0
  0
LINE
  5
28A
100
AcDbEntity
  8
1AL
100
AcDbLine
 10
276.488258
 20
183.291314
 30
0.0
 11
277.416744
 21
183.662681
 31
0.0
  0
ARC
  5
28B
100
AcDbEntity
  8
1AL
100
AcDbCircle
 10
278.647123
 20
189.674538
 30
0.0
 40
0.625
100
AcDbArc
 50
291.8
 51
111.8
  0
LINE
  5
28C
100
AcDbEntity
  8
1AL
100
AcDbLine
 10
278.879228
 20
189.094234
 30
0.0
 11
275.745588
 21
187.840868
 31
0.0
  0
ARC
  5
28D
100
AcDbEntity
  8
1AL
100
AcDbCircle
 10
276.87824
 20
184.201211
 30
0.0
 40
0.7
100
AcDbArc
 50
201.8
 51
291.8
  0
LINE
  5
28E
100
AcDbEntity
  8
1AL
100
AcDbLine
 10
277.416744
 20
183.662681
 30
0.0
 11
277.138198
 21
183.551271
 31
0.0
  0
LINE
  5
28F
100
AcDbEntity
  8
1AL
100
AcDbLine
 10
275.745588
 20
187.840868
 30
0.0
 11
277.416744
 21
183.662681
 31
0.0
  0
LINE
  5
290
100
AcDbEntity
  8
1AL
100
AcDbLine
 10
277.045376
 20
184.591167
 30
0.0
 11
277.416744
 21
183.662681
 31
0.0
  0
LINE
  5
291
100
AcDbEntity
  8
1AL
100
AcDbLine
 10
277.045376
 20
184.591167
 30
0.0
 11
277.509619
 21
184.776851
 31
0.0
  0
ARC
  5
292
100
AcDbEntity
  8
1AL
100
AcDbCircle
 10
277.695303
 20
184.312608
 30
0.0
 40
0.5
100
AcDbArc
 50
21.8
 51
111.8
  0
POINT
  5
293
100
AcDbEntity
  8
DEFPOINTS
 62
     0
100
AcDbPoint
 10
283.359026
 20
184.962403
 30
0.0
  0
ARC
  5
294
100
AcDbEntity
  8
1AL
100
AcDbCircle
 10
277.092012
 20
193.225999
 30
0.0
 40
0.75
100
AcDbArc
 50
291.8
 51
111.8
  0
POINT
  5
295
100
AcDbEntity
  8
DEFPOINTS
 62
     0
100
AcDbPoint
 10
288.001456
 20
186.819242
 30
0.0
  0
POINT
  5
296
100
AcDbEntity
  8
DEFPOINTS
 62
     0
100
AcDbPoint
 10
293.571973
 20
172.891954
 30
0.0
  0
LINE
  5
297
100
AcDbEntity
  8
ADM
 62
     0
100
AcDbLine
 10
276.860553
 20
220.058981
 30
0.0
 11
328.943566
 21
240.8907
 31
0.0
1001
ACAD
1000
RTLwPs
1070
   158
  0
LINE
  5
298
100
AcDbEntity
  8
ACL
  6
CENTER2
100
AcDbLine
 10
277.878967
 20
233.669252
 30
0.0
 11
291.273644
 21
200.180172
 31
0.0
  0
LINE
  5
299
100
AcDbEntity
  8
1GASKET
100
AcDbLine
 10
293.573298
 20
226.743602
 30
0.0
 11
287.073897
 21
224.144028
 31
0.0
  0
LINE
  5
29B
100
AcDbEntity
  8
1GASKET
100
AcDbLine
 10
290.230987
 20
235.099975
 30
0.0
 11
293.573298
 21
226.743602
 31
0.0
  0
LINE
  5
29C
100
AcDbEntity
  8
1GASKET
100
AcDbLine
 10
287.073897
 20
224.144028
 30
0.0
 11
283.731587
 21
232.5004
 31
0.0
  0
LINE
  5
29D
100
AcDbEntity
  8
1AL
100
AcDbLine
 10
275.746582
 20
228.229604
 30
0.0
 11
283.174469
 21
231.200546
 31
0.0
  0
LINE
  5
29E
100
AcDbEntity
  8
1AL
100
AcDbLine
 10
283.731587
 20
232.5004
 30
0.0
 11
286.888213
 21
224.608271
 31
0.0
  0
LINE
  5
29F
100
AcDbEntity
  8
1AL
100
AcDbLine
 10
283.174469
 20
231.200546
 30
0.0
 11
285.959727
 21
224.236903
 31
0.0
  0
LINE
  5
2A0
100
AcDbEntity
  8
1AL
100
AcDbLine
 10
275.746582
 20
228.229604
 30
0.0
 11
278.531841
 21
221.26596
 31
0.0
  0
LINE
  5
2A1
100
AcDbEntity
  8
1AL
100
AcDbLine
 10
277.046303
 20
222.287321
 30
0.0
 11
277.603355
 21
220.894592
 31
0.0
  0
ARC
  5
2A2
100
AcDbEntity
  8
1AL
100
AcDbCircle
 10
278.067598
 20
221.080276
 30
0.0
 40
0.5
100
AcDbArc
 50
201.8
 51
21.8
  0
ARC
  5
2A3
100
AcDbEntity
  8
1AL
100
AcDbCircle
 10
286.42397
 20
224.422587
 30
0.0
 40
0.5
100
AcDbArc
 50
201.8
 51
21.8
  0
ARC
  5
2A4
100
AcDbEntity
  8
1GASKET
100
AcDbCircle
 10
285.95718
 20
236.360638
 30
0.0
 40
4.455861
100
AcDbArc
 50
240.034696
 51
343.565304
  0
POINT
  5
2A5
100
AcDbEntity
  8
DEFPOINTS
 62
     0
100
AcDbPoint
 10
277.878967
 20
233.669252
 30
0.0
  0
POINT
  5
2A6
100
AcDbEntity
  8
DEFPOINTS
 62
     0
100
AcDbPoint
 10
283.731587
 20
232.5004
 30
0.0
  0
POINT
  5
2A7
100
AcDbEntity
  8
DEFPOINTS
 62
     0
100
AcDbPoint
 10
283.731587
 20
232.5004
 30
0.0
  0
LINE
  5
2A8
100
AcDbEntity
  8
AHJ
  6
BYBLOCK
 62
     0
100
AcDbLine
 10
275.960601
 20
239.811883
 30
0.0
 11
276.424844
 21
239.997567
 31
0.0
  0
LINE
  5
2A9
100
AcDbEntity
  8
AHJ
  6
BYBLOCK
 62
     0
100
AcDbLine
 10
279.674545
 20
241.297355
 30
0.0
 11
279.210302
 21
241.111671
 31
0.0
  0
LINE
  5
2AA
100
AcDbEntity
  8
ADM
 62
     0
100
AcDbLine
 10
276.424844
 20
239.997567
 30
0.0
 11
279.210302
 21
241.111671
 31
0.0
1001
ACAD
1000
RTLwPs
1070
   158
  0
POINT
  5
2AB
100
AcDbEntity
  8
DEFPOINTS
 62
     0
100
AcDbPoint
 10
282.521396
 20
235.526091
 30
0.0
  0
POINT
  5
2AC
100
AcDbEntity
  8
DEFPOINTS
 62
     0
100
AcDbPoint
 10
284.474322
 20
230.643428
 30
0.0
  0
POINT
  5
2AD
100
AcDbEntity
  8
DEFPOINTS
 62
     0
100
AcDbPoint
 10
290.230987
 20
235.099975
 30
0.0
  0
POINT
  5
2AE
100
AcDbEntity
  8
DEFPOINTS
 62
     0
100
AcDbPoint
 10
293.573298
 20
226.743602
 30
0.0
  0
LINE
  5
2AF
100
AcDbEntity
  8
ADM
 62
     0
100
AcDbLine
 10
328.200751
 20
239.516573
 30
0.0
 11
340.45589
 21
208.876541
 31
0.0
1001
ACAD
1000
RTLwPs
1070
   158
  0
ARC
  5
2B0
100
AcDbEntity
  8
AHJ
  6
BYBLOCK
 62
     0
100
AcDbCircle
 10
340.827257
 20
207.948055
 30
0.0
 40
0.25
100
AcDbArc
 50
291.8
 51
111.8
  0
ARC
  5
2B1
100
AcDbEntity
  8
AHJ
  6
BYBLOCK
 62
     0
100
AcDbCircle
 10
340.827257
 20
207.948055
 30
0.0
 40
0.25
100
AcDbArc
 50
111.8
 51
291.8
  0
LINE
  5
2B2
100
AcDbEntity
  8
AHJ
  6
BYBLOCK
 62
     0
100
AcDbLine
 10
340.641573
 20
208.412298
 30
0.0
 11
340.45589
 21
208.876541
 31
0.0
  0
POINT
  5
2B3
100
AcDbEntity
  8
DEFPOINTS
 62
     0
100
AcDbPoint
 10
340.827257
 20
207.948055
 30
0.0
  0
TEXT
  5
2B4
100
AcDbEntity
  8
0
 62
     0
100
AcDbText
 10
334.195755
 20
227.220742
 30
0.0
 40
3.0
  1
35
 50
291.8
100
AcDbText
1001
ACAD
1000
MTEXTBEGIN
1070
    73
1070
     1
1070
    44
1040
1.0
1070
    74
1070
     0
1000
MTEXTEND
  0
ARC
  5
2B5
100
AcDbEntity
  8
AHJ
  6
BYBLOCK
 62
     0
100
AcDbCircle
 10
327.829383
 20
240.445059
 30
0.0
 40
0.25
100
AcDbArc
 50
111.8
 51
291.8
  0
ARC
  5
2B6
100
AcDbEntity
  8
AHJ
  6
BYBLOCK
 62
     0
100
AcDbCircle
 10
327.829383
 20
240.445059
 30
0.0
 40
0.25
100
AcDbArc
 50
291.8
 51
111.8
  0
LINE
  5
2B7
100
AcDbEntity
  8
AHJ
  6
BYBLOCK
 62
     0
100
AcDbLine
 10
328.015067
 20
239.980816
 30
0.0
 11
328.200751
 21
239.516573
 31
0.0
  0
LINE
  5
2B8
100
AcDbEntity
  8
ADM
 62
     0
100
AcDbLine
 10
272.154445
 20
264.138066
 30
0.0
 11
276.796874
 21
265.994905
 31
0.0
1001
ACAD
1000
RTLwPs
1070
   158
  0
LINE
  5
2B9
100
AcDbEntity
  8
ADM
 62
     0
100
AcDbLine
 10
266.026015
 20
244.454511
 30
0.0
 11
282.73876
 21
251.139132
 31
0.0
1001
ACAD
1000
RTLwPs
1070
   158
  0
LINE
  5
2BA
100
AcDbEntity
  8
ADM
 62
     0
100
AcDbLine
 10
237.057469
 20
241.484098
 30
0.0
 11
256.555671
 21
249.282823
 31
0.0
1001
ACAD
1000
RTLwPs
1070
   158
  0
LINE
  5
2BB
100
AcDbEntity
  8
ADM
 62
     0
100
AcDbLine
 10
234.086526
 20
248.911985
 30
0.0
 11
270.297474
 21
263.395331
 31
0.0
1001
ACAD
1000
RTLwPs
1070
   158
  0
ARC
  5
2BC
100
AcDbEntity
  8
AHJ
  6
BYBLOCK
 62
     0
100
AcDbCircle
 10
233.158041
 20
248.540617
 30
0.0
 40
0.25
100
AcDbArc
 50
201.8
 51
21.8
  0
ARC
  5
2BD
100
AcDbEntity
  8
AHJ
  6
BYBLOCK
 62
     0
100
AcDbCircle
 10
233.158041
 20
248.540617
 30
0.0
 40
0.25
100
AcDbArc
 50
21.8
 51
201.8
  0
ARC
  5
2BE
100
AcDbEntity
  8
AHJ
  6
BYBLOCK
 62
     0
100
AcDbCircle
 10
233.158041
 20
248.540617
 30
0.0
 40
0.25
100
AcDbArc
 50
21.8
 51
201.8
  0
ARC
  5
2BF
100
AcDbEntity
  8
AHJ
  6
BYBLOCK
 62
     0
100
AcDbCircle
 10
233.158041
 20
248.540617
 30
0.0
 40
0.25
100
AcDbArc
 50
201.8
 51
21.8
  0
LINE
  5
2C0
100
AcDbEntity
  8
AHJ
  6
BYBLOCK
 62
     0
100
AcDbLine
 10
232.693798
 20
248.354933
 30
0.0
 11
232.229555
 21
248.169249
 31
0.0
  0
LINE
  5
2C1
100
AcDbEntity
  8
AHJ
  6
BYBLOCK
 62
     0
100
AcDbLine
 10
233.622283
 20
248.726301
 30
0.0
 11
234.086526
 21
248.911985
 31
0.0
  0
LINE
  5
2C2
100
AcDbEntity
  8
ADM
 62
     0
100
AcDbLine
 10
273.268416
 20
255.967444
 30
0.0
 11
258.412643
 21
250.025559
 31
0.0
1001
ACAD
1000
RTLwPs
1070
   158
  0
TEXT
  5
2C3
100
AcDbEntity
  8
0
 62
     0
100
AcDbText
 10
243.782386
 20
245.250896
 30
0.0
 40
3.0
  1
23
 50
21.8
100
AcDbText
1001
ACAD
1000
MTEXTBEGIN
1070
    73
1070
     1
1070
    44
1040
1.0
1070
    74
1070
     0
1000
MTEXTEND
  0
ARC
  5
2C4
100
AcDbEntity
  8
AHJ
  6
BYBLOCK
 62
     0
100
AcDbCircle
 10
257.484157
 20
249.654191
 30
0.0
 40
0.25
100
AcDbArc
 50
201.8
 51
21.8
  0
ARC
  5
2C5
100
AcDbEntity
  8
AHJ
  6
BYBLOCK
 62
     0
100
AcDbCircle
 10
257.484157
 20
249.654191
 30
0.0
 40
0.25
100
AcDbArc
 50
21.8
 51
201.8
  0
ARC
  5
2C6
100
AcDbEntity
  8
AHJ
  6
BYBLOCK
 62
     0
100
AcDbCircle
 10
257.484157
 20
249.654191
 30
0.0
 40
0.25
100
AcDbArc
 50
21.8
 51
201.8
  0
ARC
  5
2C7
100
AcDbEntity
  8
AHJ
  6
BYBLOCK
 62
     0
100
AcDbCircle
 10
257.484157
 20
249.654191
 30
0.0
 40
0.25
100
AcDbArc
 50
201.8
 51
21.8
  0
LINE
  5
2C8
100
AcDbEntity
  8
AHJ
  6
BYBLOCK
 62
     0
100
AcDbLine
 10
257.019914
 20
249.468507
 30
0.0
 11
256.555671
 21
249.282823
 31
0.0
  0
LINE
  5
2C9
100
AcDbEntity
  8
AHJ
  6
BYBLOCK
 62
     0
100
AcDbLine
 10
257.9484
 20
249.839875
 30
0.0
 11
258.412643
 21
250.025559
 31
0.0
  0
POINT
  5
2CA
100
AcDbEntity
  8
DEFPOINTS
 62
     0
100
AcDbPoint
 10
257.484157
 20
249.654191
 30
0.0
  0
POINT
  5
2CB
100
AcDbEntity
  8
DEFPOINTS
 62
     0
100
AcDbPoint
 10
257.484157
 20
249.654191
 30
0.0
  0
TEXT
  5
2CC
100
AcDbEntity
  8
0
 62
     0
100
AcDbText
 10
249.565738
 20
256.18025
 30
0.0
 40
3.0
  1
41
 50
21.8
100
AcDbText
1001
ACAD
1000
MTEXTBEGIN
1070
    73
1070
     1
1070
    44
1040
1.0
1070
    74
1070
     0
1000
MTEXTEND
  0
ARC
  5
2CD
100
AcDbEntity
  8
AHJ
  6
BYBLOCK
 62
     0
100
AcDbCircle
 10
265.097529
 20
244.083143
 30
0.0
 40
0.25
100
AcDbArc
 50
201.8
 51
21.8
  0
ARC
  5
2CE
100
AcDbEntity
  8
AHJ
  6
BYBLOCK
 62
     0
100
AcDbCircle
 10
265.097529
 20
244.083143
 30
0.0
 40
0.25
100
AcDbArc
 50
21.8
 51
201.8
  0
LINE
  5
2CF
100
AcDbEntity
  8
AHJ
  6
BYBLOCK
 62
     0
100
AcDbLine
 10
265.561772
 20
244.268827
 30
0.0
 11
266.026015
 21
244.454511
 31
0.0
  0
TEXT
  5
2D0
100
AcDbEntity
  8
0
 62
     0
100
AcDbText
 10
269.640491
 20
247.115869
 30
0.0
 40
3.0
  1
20
 50
21.8
100
AcDbText
1001
ACAD
1000
MTEXTBEGIN
1070
    73
1070
     1
1070
    44
1040
1.0
1070
    74
1070
     0
1000
MTEXTEND
  0
TEXT
  5
2D1
100
AcDbEntity
  8
0
 62
     0
100
AcDbText
 10
262.617384
 20
252.784357
 30
0.0
 40
3.0
  1
18
 50
21.8
100
AcDbText
1001
ACAD
1000
MTEXTBEGIN
1070
    73
1070
     1
1070
    44
1040
1.0
1070
    74
1070
     0
1000
MTEXTEND
  0
ARC
  5
2D2
100
AcDbEntity
  8
AHJ
  6
BYBLOCK
 62
     0
100
AcDbCircle
 10
274.196902
 20
256.338812
 30
0.0
 40
0.25
100
AcDbArc
 50
21.8
 51
201.8
  0
ARC
  5
2D3
100
AcDbEntity
  8
AHJ
  6
BYBLOCK
 62
     0
100
AcDbCircle
 10
274.196902
 20
256.338812
 30
0.0
 40
0.25
100
AcDbArc
 50
201.8
 51
21.8
  0
LINE
  5
2D4
100
AcDbEntity
  8
AHJ
  6
BYBLOCK
 62
     0
100
AcDbLine
 10
273.732659
 20
256.153128
 30
0.0
 11
273.268416
 21
255.967444
 31
0.0
  0
ARC
  5
2D5
100
AcDbEntity
  8
AHJ
  6
BYBLOCK
 62
     0
100
AcDbCircle
 10
271.225959
 20
263.766698
 30
0.0
 40
0.25
100
AcDbArc
 50
201.8
 51
21.8
  0
ARC
  5
2D6
100
AcDbEntity
  8
AHJ
  6
BYBLOCK
 62
     0
100
AcDbCircle
 10
271.225959
 20
263.766698
 30
0.0
 40
0.25
100
AcDbArc
 50
201.8
 51
21.8
  0
ARC
  5
2D7
100
AcDbEntity
  8
AHJ
  6
BYBLOCK
 62
     0
100
AcDbCircle
 10
271.225959
 20
263.766698
 30
0.0
 40
0.25
100
AcDbArc
 50
21.8
 51
201.8
  0
ARC
  5
2D8
100
AcDbEntity
  8
AHJ
  6
BYBLOCK
 62
     0
100
AcDbCircle
 10
271.225959
 20
263.766698
 30
0.0
 40
0.25
100
AcDbArc
 50
21.8
 51
201.8
  0
LINE
  5
2D9
100
AcDbEntity
  8
AHJ
  6
BYBLOCK
 62
     0
100
AcDbLine
 10
270.761717
 20
263.581015
 30
0.0
 11
270.297474
 21
263.395331
 31
0.0
  0
POINT
  5
2DA
100
AcDbEntity
  8
DEFPOINTS
 62
     0
100
AcDbPoint
 10
271.225959
 20
263.766698
 30
0.0
  0
LINE
  5
2DB
100
AcDbEntity
  8
AHJ
  6
BYBLOCK
 62
     0
100
AcDbLine
 10
271.690202
 20
263.952382
 30
0.0
 11
272.154445
 21
264.138066
 31
0.0
  0
TEXT
  5
2DC
100
AcDbEntity
  8
0
 62
     0
100
AcDbText
 10
272.777884
 20
265.464446
 30
0.0
 40
3.0
  1
7
 50
21.8
100
AcDbText
1001
ACAD
1000
MTEXTBEGIN
1070
    73
1070
     1
1070
    44
1040
1.0
1070
    74
1070
     0
1000
MTEXTEND
  0
ARC
  5
2DD
100
AcDbEntity
  8
AHJ
  6
BYBLOCK
 62
     0
100
AcDbCircle
 10
283.667246
 20
251.5105
 30
0.0
 40
0.25
100
AcDbArc
 50
21.8
 51
201.8
  0
ARC
  5
2DE
100
AcDbEntity
  8
AHJ
  6
BYBLOCK
 62
     0
100
AcDbCircle
 10
283.667246
 20
251.5105
 30
0.0
 40
0.25
100
AcDbArc
 50
201.8
 51
21.8
  0
TEXT
  5
2DF
100
AcDbEntity
  8
0
 62
     0
100
AcDbText
 10
276.119797
 20
240.952579
 30
0.0
 40
3.0
  1
5
 50
21.8
100
AcDbText
1001
ACAD
1000
MTEXTBEGIN
1070
    73
1070
     1
1070
    44
1040
1.0
1070
    74
1070
     0
1000
MTEXTEND
  0
POINT
  5
2E0
100
AcDbEntity
  8
DEFPOINTS
 62
     0
100
AcDbPoint
 10
280.138788
 20
241.483039
 30
0.0
  0
LINE
  5
2E1
100
AcDbEntity
  8
AHJ
  6
BYBLOCK
 62
     0
100
AcDbLine
 10
283.203003
 20
251.324816
 30
0.0
 11
282.73876
 21
251.139132
 31
0.0
  0
POINT
  5
2E2
100
AcDbEntity
  8
DEFPOINTS
 62
     0
100
AcDbPoint
 10
283.667246
 20
251.5105
 30
0.0
  0
ARC
  5
2E3
100
AcDbEntity
  8
AHJ
  6
BYBLOCK
 62
     0
100
AcDbCircle
 10
277.72536
 20
266.366273
 30
0.0
 40
0.25
100
AcDbArc
 50
21.8
 51
201.8
  0
ARC
  5
2E4
100
AcDbEntity
  8
AHJ
  6
BYBLOCK
 62
     0
100
AcDbCircle
 10
277.72536
 20
266.366273
 30
0.0
 40
0.25
100
AcDbArc
 50
201.8
 51
21.8
  0
LINE
  5
2E5
100
AcDbEntity
  8
AHJ
  6
BYBLOCK
 62
     0
100
AcDbLine
 10
277.261117
 20
266.180589
 30
0.0
 11
276.796874
 21
265.994905
 31
0.0
  0
POINT
  5
2E6
100
AcDbEntity
  8
DEFPOINTS
 62
     0
100
AcDbPoint
 10
277.72536
 20
266.366273
 30
0.0
  0
ARC
  5
2E7
100
AcDbEntity
  8
1BIS
100
AcDbCircle
 10
333.195797
 20
250.545044
 30
0.0
 40
4.439515
100
AcDbArc
 50
139.9806
 51
245.050832
  0
ENDSEC
  0
SECTION
  2
OBJECTS
  0
DICTIONARY
  5
1E
102
{ACAD_XDICTIONARY
360
1F
102
}
100
AcDbDictionary
  3
ACAD_GROUP
350
1C
  3
ACAD_MLINESTYLE
350
1D
  0
DICTIONARY
  5
65
100
AcDbDictionary
280
     1
  3
ACAD_XREC_ROUNDTRIP
360
66
  0
DICTIONARY
  5
23
100
AcDbDictionary
280
     1
  3
ACAD_XREC_ROUNDTRIP
360
24
  0
DICTIONARY
  5
3
100
AcDbDictionary
280
     1
  3
ACAD_LAYOUTSELFREF
360
4
  0
DICTIONARY
  5
A
100
AcDbDictionary
280
     1
  3
ACAD_LAYOUTSELFREF
360
B
  0
DICTIONARY
  5
1F
100
AcDbDictionary
280
     1
  3
ACAD_XREC_ROUNDTRIP
360
20
  0
DICTIONARY
  5
1C
102
{ACAD_REACTORS
330
1E
102
}
100
AcDbDictionary
  0
DICTIONARY
  5
1D
102
{ACAD_REACTORS
330
1E
102
}
100
AcDbDictionary
  3
STANDARD
350
21
  0
XRECORD
  5
66
102
{ACAD_REACTORS
330
65
102
}
100
AcDbXrecord
102
PLOTBIT
280
     0
  0
XRECORD
  5
24
102
{ACAD_REACTORS
330
23
102
}
100
AcDbXrecord
102
ACADR14ROUNDTRIP
1000
DSTYLE
1002
{
1070
   279
 70
     2
1002
}
  0
XRECORD
  5
4
102
{ACAD_REACTORS
330
3
102
}
100
AcDbXrecord
340
2
  0
XRECORD
  5
B
102
{ACAD_REACTORS
330
A
102
}
100
AcDbXrecord
340
9
  0
XRECORD
  5
20
102
{ACAD_REACTORS
330
1F
102
}
100
AcDbXrecord
102
EXTNAMES
  1
ACADDIM
  2
AcadDim
  1
ACDBVARIABLEDICTIONARY
  2
AcDbVariableDictionary
  0
MLINESTYLE
  5
21
102
{ACAD_REACTORS
330
1D
102
}
100
AcDbMlineStyle
  2
STANDARD
 70
     0
  3

 62
   256
 51
90.0
 52
90.0
 71
     2
 49
0.5
 62
   256
  6
BYLAYER
 49
-0.5
 62
   256
  6
BYLAYER
  0
ENDSEC
  0
EOF
