  0
SECTION
  2
HEADER
  9
$ACADVER
  1
AC1014
  9
$ACADMAINTVER
 70
     0
  9
$DWGCODEPAGE
  3
ANSI_932
  9
$INSBASE
 10
0.0
 20
0.0
 30
0.0
  9
$EXTMIN
 10
0.0
 20
0.0
 30
0.0
  9
$EXTMAX
 10
790.0
 20
550.0
 30
0.0
  9
$LIMMIN
 10
0.0
 20
0.0
  9
$LIMMAX
 10
420.0
 20
297.0
  9
$ORTHOMODE
 70
     0
  9
$REGENMODE
 70
     1
  9
$FILLMODE
 70
     1
  9
$QTEXTMODE
 70
     0
  9
$MIRRTEXT
 70
     1
  9
$DRAGMODE
 70
     2
  9
$LTSCALE
 40
10.0
  9
$OSMODE
 70
    45
  9
$ATTMODE
 70
     1
  9
$TEXTSIZE
 40
3.0
  9
$TRACEWID
 40
0.05
  9
$TEXTSTYLE
  7
STANDARD
  9
$CLAYER
  8
0
  9
$CELTYPE
  6
BYLAYER
  9
$CECOLOR
 62
   256
  9
$CELTSCALE
 40
1.0
  9
$DELOBJ
 70
     1
  9
$DISPSILH
 70
     0
  9
$DIMSCALE
 40
1.0
  9
$DIMASZ
 40
2.0
  9
$DIMEXO
 40
2.0
  9
$DIMDLI
 40
0.0
  9
$DIMRND
 40
0.0
  9
$DIMDLE
 40
0.0
  9
$DIMEXE
 40
0.0
  9
$DIMTP
 40
0.0
  9
$DIMTM
 40
0.0
  9
$DIMTXT
 40
3.0
  9
$DIMCEN
 40
0.0
  9
$DIMTSZ
 40
0.0
  9
$DIMTOL
 70
     0
  9
$DIMLIM
 70
     0
  9
$DIMTIH
 70
     0
  9
$DIMTOH
 70
     0
  9
$DIMSE1
 70
     0
  9
$DIMSE2
 70
     0
  9
$DIMTAD
 70
     1
  9
$DIMZIN
 70
     8
  9
$DIMBLK
  1

  9
$DIMASO
 70
     1
  9
$DIMSHO
 70
     0
  9
$DIMPOST
  1

  9
$DIMAPOST
  1

  9
$DIMALT
 70
     0
  9
$DIMALTD
 70
     2
  9
$DIMALTF
 40
25.4
  9
$DIMLFAC
 40
1.0
  9
$DIMTOFL
 70
     1
  9
$DIMTVP
 40
1.0
  9
$DIMTIX
 70
     1
  9
$DIMSOXD
 70
     1
  9
$DIMSAH
 70
     0
  9
$DIMBLK1
  1

  9
$DIMBLK2
  1

  9
$DIMSTYLE
  2
STANDARD
  9
$DIMCLRD
 70
     0
  9
$DIMCLRE
 70
     0
  9
$DIMCLRT
 70
   256
  9
$DIMTFAC
 40
1.0
  9
$DIMGAP
 40
0.0
  9
$DIMJUST
 70
     0
  9
$DIMSD1
 70
     0
  9
$DIMSD2
 70
     0
  9
$DIMTOLJ
 70
     1
  9
$DIMTZIN
 70
     8
  9
$DIMALTZ
 70
     8
  9
$DIMALTTZ
 70
     8
  9
$DIMFIT
 70
     5
  9
$DIMUPT
 70
     0
  9
$DIMUNIT
 70
     2
  9
$DIMDEC
 70
     8
  9
$DIMTDEC
 70
     8
  9
$DIMALTU
 70
     2
  9
$DIMALTTD
 70
     2
  9
$DIMTXSTY
  7
STANDARD
  9
$DIMAUNIT
 70
     0
  9
$LUNITS
 70
     2
  9
$LUPREC
 70
     8
  9
$SKETCHINC
 40
0.1
  9
$FILLETRAD
 40
0.5
  9
$AUNITS
 70
     0
  9
$AUPREC
 70
     8
  9
$MENU
  1
ACAD
  9
$ELEVATION
 40
0.0
  9
$PELEVATION
 40
0.0
  9
$THICKNESS
 40
0.0
  9
$LIMCHECK
 70
     0
  9
$BLIPMODE
 70
     0
  9
$CHAMFERA
 40
1.0
  9
$CHAMFERB
 40
1.0
  9
$CHAMFERC
 40
0.0
  9
$CHAMFERD
 40
0.0
  9
$SKPOLY
 70
     0
  9
$TDCREATE
 40
2450991.621319444
  9
$TDUPDATE
 40
2452779.710573993
  9
$TDINDWG
 40
0.7798359606
  9
$TDUSRTIMER
 40
0.7798359606
  9
$USRTIMER
 70
     1
  9
$ANGBASE
 50
0.0
  9
$ANGDIR
 70
     0
  9
$PDMODE
 70
     0
  9
$PDSIZE
 40
0.0
  9
$PLINEWID
 40
0.0
  9
$COORDS
 70
     2
  9
$SPLFRAME
 70
     0
  9
$SPLINETYPE
 70
     6
  9
$SPLINESEGS
 70
     8
  9
$ATTDIA
 70
     0
  9
$ATTREQ
 70
     1
  9
$HANDLING
 70
     1
  9
$HANDSEED
  5
77F
  9
$SURFTAB1
 70
     6
  9
$SURFTAB2
 70
     6
  9
$SURFTYPE
 70
     6
  9
$SURFU
 70
     6
  9
$SURFV
 70
     6
  9
$UCSNAME
  2

  9
$UCSORG
 10
0.0
 20
0.0
 30
0.0
  9
$UCSXDIR
 10
1.0
 20
0.0
 30
0.0
  9
$UCSYDIR
 10
0.0
 20
1.0
 30
0.0
  9
$PUCSNAME
  2

  9
$PUCSORG
 10
0.0
 20
0.0
 30
0.0
  9
$PUCSXDIR
 10
1.0
 20
0.0
 30
0.0
  9
$PUCSYDIR
 10
0.0
 20
1.0
 30
0.0
  9
$USERI1
 70
     0
  9
$USERI2
 70
     0
  9
$USERI3
 70
     0
  9
$USERI4
 70
     0
  9
$USERI5
 70
     0
  9
$USERR1
 40
0.0
  9
$USERR2
 40
0.0
  9
$USERR3
 40
0.0
  9
$USERR4
 40
0.0
  9
$USERR5
 40
0.0
  9
$WORLDVIEW
 70
     1
  9
$SHADEDGE
 70
     3
  9
$SHADEDIF
 70
    70
  9
$TILEMODE
 70
     1
  9
$MAXACTVP
 70
    16
  9
$PINSBASE
 10
0.0
 20
0.0
 30
0.0
  9
$PLIMCHECK
 70
     0
  9
$PEXTMIN
 10
1.000000E+20
 20
1.000000E+20
 30
1.000000E+20
  9
$PEXTMAX
 10
-1.000000E+20
 20
-1.000000E+20
 30
-1.000000E+20
  9
$PLIMMIN
 10
0.0
 20
0.0
  9
$PLIMMAX
 10
12.0
 20
9.0
  9
$UNITMODE
 70
     0
  9
$VISRETAIN
 70
     0
  9
$PLINEGEN
 70
     0
  9
$PSLTSCALE
 70
     0
  9
$TREEDEPTH
 70
  3020
  9
$PICKSTYLE
 70
     1
  9
$CMLSTYLE
  2
STANDARD
  9
$CMLJUST
 70
     0
  9
$CMLSCALE
 40
1.0
  9
$PROXYGRAPHICS
 70
     1
  9
$MEASUREMENT
 70
     0
  0
ENDSEC
  0
SECTION
  2
CLASSES
  0
CLASS
  1
LWPOLYLINE
  2
AcDbPolyline
  3
"AutoCAD"
 90
        0
280
     0
281
     1
  0
CLASS
  1
ACDBDICTIONARYWDFLT
  2
AcDbDictionaryWithDefault
  3
AutoCAD 2000
 90
        0
280
     1
281
     0
  0
CLASS
  1
ACDBPLACEHOLDER
  2
AcDbPlaceHolder
  3
AutoCAD 2000
 90
        0
280
     1
281
     0
  0
CLASS
  1
LAYOUT
  2
AcDbLayout
  3
AutoCAD 2000
 90
        0
280
     1
281
     0
  0
CLASS
  1
DICTIONARYVAR
  2
AcDbDictionaryVar
  3
"AutoCAD"
 90
        0
280
     0
281
     0
  0
CLASS
  1
LONG_TRANSACTION
  2
AcDbLongTransaction
  3
AutoCAD 2000
 90
        0
280
     1
281
     0
  0
CLASS
  1
LWPOLYLINE
  2
AcDbPolyline
  3
"AutoCAD"
 90
        0
280
     0
281
     1
  0
CLASS
  1
HATCH
  2
AcDbHatch
  3
"ACAD_SEDONA"
 90
        0
280
     0
281
     1
  0
CLASS
  1
XRECORD
  2
AcDbXrecord
  3
"<Built In>"
 90
        0
280
     0
281
     0
  0
CLASS
  1
LONG_TRANSACTION
  2
AcDbLongTransaction
  3
AutoCAD 2000
 90
        0
280
     1
281
     0
  0
CLASS
  1
LWPOLYLINE
  2
AcDbPolyline
  3
"AutoCAD"
 90
        0
280
     0
281
     1
  0
CLASS
  1
HATCH
  2
AcDbHatch
  3
"ACAD_SEDONA"
 90
        0
280
     0
281
     1
  0
CLASS
  1
XRECORD
  2
AcDbXrecord
  3
"<Built In>"
 90
        0
280
     0
281
     0
  0
CLASS
  1
LONG_TRANSACTION
  2
AcDbLongTransaction
  3
AutoCAD 2000
 90
        0
280
     1
281
     0
  0
CLASS
  1
LWPOLYLINE
  2
AcDbPolyline
  3
"AutoCAD"
 90
        0
280
     0
281
     1
  0
CLASS
  1
HATCH
  2
AcDbHatch
  3
"ACAD_SEDONA"
 90
        0
280
     0
281
     1
  0
CLASS
  1
XRECORD
  2
AcDbXrecord
  3
"<Built In>"
 90
        0
280
     0
281
     0
  0
CLASS
  1
LONG_TRANSACTION
  2
AcDbLongTransaction
  3
AutoCAD 2000
 90
        0
280
     1
281
     0
  0
CLASS
  1
LWPOLYLINE
  2
AcDbPolyline
  3
"AutoCAD"
 90
        0
280
     0
281
     1
  0
CLASS
  1
HATCH
  2
AcDbHatch
  3
"ACAD_SEDONA"
 90
        0
280
     0
281
     1
  0
CLASS
  1
XRECORD
  2
AcDbXrecord
  3
"<Built In>"
 90
        0
280
     0
281
     0
  0
CLASS
  1
LONG_TRANSACTION
  2
AcDbLongTransaction
  3
AutoCAD 2000
 90
        0
280
     1
281
     0
  0
CLASS
  1
LWPOLYLINE
  2
AcDbPolyline
  3
"AutoCAD"
 90
        0
280
     0
281
     1
  0
CLASS
  1
HATCH
  2
AcDbHatch
  3
"ACAD_SEDONA"
 90
        0
280
     0
281
     1
  0
CLASS
  1
XRECORD
  2
AcDbXrecord
  3
"<Built In>"
 90
        0
280
     0
281
     0
  0
CLASS
  1
LONG_TRANSACTION
  2
AcDbLongTransaction
  3
AutoCAD 2000
 90
        0
280
     1
281
     0
  0
CLASS
  1
LWPOLYLINE
  2
AcDbPolyline
  3
"AutoCAD"
 90
        0
280
     0
281
     1
  0
CLASS
  1
HATCH
  2
AcDbHatch
  3
"ACAD_SEDONA"
 90
        0
280
     0
281
     1
  0
CLASS
  1
XRECORD
  2
AcDbXrecord
  3
"<Built In>"
 90
        0
280
     0
281
     0
  0
CLASS
  1
LONG_TRANSACTION
  2
AcDbLongTransaction
  3
AutoCAD 2000
 90
        0
280
     1
281
     0
  0
CLASS
  1
LWPOLYLINE
  2
AcDbPolyline
  3
"AutoCAD"
 90
        0
280
     0
281
     1
  0
CLASS
  1
HATCH
  2
AcDbHatch
  3
"ACAD_SEDONA"
 90
        0
280
     0
281
     1
  0
CLASS
  1
XRECORD
  2
AcDbXrecord
  3
"<Built In>"
 90
        0
280
     0
281
     0
  0
CLASS
  1
LONG_TRANSACTION
  2
AcDbLongTransaction
  3
AutoCAD 2000
 90
        0
280
     1
281
     0
  0
CLASS
  1
LWPOLYLINE
  2
AcDbPolyline
  3
"AutoCAD"
 90
        0
280
     0
281
     1
  0
CLASS
  1
HATCH
  2
AcDbHatch
  3
"ACAD_SEDONA"
 90
        0
280
     0
281
     1
  0
CLASS
  1
XRECORD
  2
AcDbXrecord
  3
"<Built In>"
 90
        0
280
     0
281
     0
  0
CLASS
  1
LONG_TRANSACTION
  2
AcDbLongTransaction
  3
AutoCAD 2000
 90
        0
280
     1
281
     0
  0
CLASS
  1
LWPOLYLINE
  2
AcDbPolyline
  3
"AutoCAD"
 90
        0
280
     0
281
     1
  0
CLASS
  1
HATCH
  2
AcDbHatch
  3
"ACAD_SEDONA"
 90
        0
280
     0
281
     1
  0
CLASS
  1
XRECORD
  2
AcDbXrecord
  3
"<Built In>"
 90
        0
280
     0
281
     0
  0
CLASS
  1
LONG_TRANSACTION
  2
AcDbLongTransaction
  3
AutoCAD 2000
 90
        0
280
     1
281
     0
  0
CLASS
  1
LWPOLYLINE
  2
AcDbPolyline
  3
"AutoCAD"
 90
        0
280
     0
281
     1
  0
CLASS
  1
HATCH
  2
AcDbHatch
  3
"ACAD_SEDONA"
 90
        0
280
     0
281
     1
  0
CLASS
  1
XRECORD
  2
AcDbXrecord
  3
"<Built In>"
 90
        0
280
     0
281
     0
  0
CLASS
  1
LONG_TRANSACTION
  2
AcDbLongTransaction
  3
AutoCAD 2000
 90
        0
280
     1
281
     0
  0
CLASS
  1
LWPOLYLINE
  2
AcDbPolyline
  3
"AutoCAD"
 90
        0
280
     0
281
     1
  0
CLASS
  1
HATCH
  2
AcDbHatch
  3
"ACAD_SEDONA"
 90
        0
280
     0
281
     1
  0
CLASS
  1
XRECORD
  2
AcDbXrecord
  3
"<Built In>"
 90
        0
280
     0
281
     0
  0
CLASS
  1
LONG_TRANSACTION
  2
AcDbLongTransaction
  3
AutoCAD 2000
 90
        0
280
     1
281
     0
  0
CLASS
  1
LWPOLYLINE
  2
AcDbPolyline
  3
"AutoCAD"
 90
        0
280
     0
281
     1
  0
CLASS
  1
HATCH
  2
AcDbHatch
  3
"ACAD_SEDONA"
 90
        0
280
     0
281
     1
  0
CLASS
  1
XRECORD
  2
AcDbXrecord
  3
"<Built In>"
 90
        0
280
     0
281
     0
  0
CLASS
  1
LONG_TRANSACTION
  2
AcDbLongTransaction
  3
AutoCAD 2000
 90
        0
280
     1
281
     0
  0
CLASS
  1
LWPOLYLINE
  2
AcDbPolyline
  3
"AutoCAD"
 90
        0
280
     0
281
     1
  0
CLASS
  1
HATCH
  2
AcDbHatch
  3
"ACAD_SEDONA"
 90
        0
280
     0
281
     1
  0
CLASS
  1
XRECORD
  2
AcDbXrecord
  3
"<Built In>"
 90
        0
280
     0
281
     0
  0
CLASS
  1
LONG_TRANSACTION
  2
AcDbLongTransaction
  3
AutoCAD 2000
 90
        0
280
     1
281
     0
  0
CLASS
  1
LWPOLYLINE
  2
AcDbPolyline
  3
"AutoCAD"
 90
        0
280
     0
281
     1
  0
CLASS
  1
HATCH
  2
AcDbHatch
  3
"ACAD_SEDONA"
 90
        0
280
     0
281
     1
  0
CLASS
  1
XRECORD
  2
AcDbXrecord
  3
"<Built In>"
 90
        0
280
     0
281
     0
  0
CLASS
  1
LONG_TRANSACTION
  2
AcDbLongTransaction
  3
AutoCAD 2000
 90
        0
280
     1
281
     0
  0
CLASS
  1
LWPOLYLINE
  2
AcDbPolyline
  3
"AutoCAD"
 90
        0
280
     0
281
     1
  0
CLASS
  1
HATCH
  2
AcDbHatch
  3
"ACAD_SEDONA"
 90
        0
280
     0
281
     1
  0
CLASS
  1
XRECORD
  2
AcDbXrecord
  3
"<Built In>"
 90
        0
280
     0
281
     0
  0
CLASS
  1
LONG_TRANSACTION
  2
AcDbLongTransaction
  3
AutoCAD 2000
 90
        0
280
     1
281
     0
  0
CLASS
  1
LWPOLYLINE
  2
AcDbPolyline
  3
"AutoCAD"
 90
        0
280
     0
281
     1
  0
CLASS
  1
HATCH
  2
AcDbHatch
  3
"ACAD_SEDONA"
 90
        0
280
     0
281
     1
  0
CLASS
  1
XRECORD
  2
AcDbXrecord
  3
"<Built In>"
 90
        0
280
     0
281
     0
  0
CLASS
  1
LONG_TRANSACTION
  2
AcDbLongTransaction
  3
AutoCAD 2000
 90
        0
280
     1
281
     0
  0
CLASS
  1
LWPOLYLINE
  2
AcDbPolyline
  3
"AutoCAD"
 90
        0
280
     0
281
     1
  0
CLASS
  1
HATCH
  2
AcDbHatch
  3
"ACAD_SEDONA"
 90
        0
280
     0
281
     1
  0
CLASS
  1
XRECORD
  2
AcDbXrecord
  3
"<Built In>"
 90
        0
280
     0
281
     0
  0
CLASS
  1
LONG_TRANSACTION
  2
AcDbLongTransaction
  3
AutoCAD 2000
 90
        0
280
     1
281
     0
  0
CLASS
  1
LWPOLYLINE
  2
AcDbPolyline
  3
"AutoCAD"
 90
        0
280
     0
281
     1
  0
CLASS
  1
HATCH
  2
AcDbHatch
  3
"ACAD_SEDONA"
 90
        0
280
     0
281
     1
  0
CLASS
  1
XRECORD
  2
AcDbXrecord
  3
"<Built In>"
 90
        0
280
     0
281
     0
  0
CLASS
  1
LONG_TRANSACTION
  2
AcDbLongTransaction
  3
AutoCAD 2000
 90
        0
280
     1
281
     0
  0
CLASS
  1
LWPOLYLINE
  2
AcDbPolyline
  3
"AutoCAD"
 90
        0
280
     0
281
     1
  0
CLASS
  1
HATCH
  2
AcDbHatch
  3
"ACAD_SEDONA"
 90
        0
280
     0
281
     1
  0
CLASS
  1
XRECORD
  2
AcDbXrecord
  3
"<Built In>"
 90
        0
280
     0
281
     0
  0
CLASS
  1
LONG_TRANSACTION
  2
AcDbLongTransaction
  3
AutoCAD 2000
 90
        0
280
     1
281
     0
  0
CLASS
  1
LWPOLYLINE
  2
AcDbPolyline
  3
"AutoCAD"
 90
        0
280
     0
281
     1
  0
CLASS
  1
HATCH
  2
AcDbHatch
  3
"ACAD_SEDONA"
 90
        0
280
     0
281
     1
  0
CLASS
  1
XRECORD
  2
AcDbXrecord
  3
"<Built In>"
 90
        0
280
     0
281
     0
  0
CLASS
  1
LONG_TRANSACTION
  2
AcDbLongTransaction
  3
AutoCAD 2000
 90
        0
280
     1
281
     0
  0
CLASS
  1
LWPOLYLINE
  2
AcDbPolyline
  3
"AutoCAD"
 90
        0
280
     0
281
     1
  0
CLASS
  1
HATCH
  2
AcDbHatch
  3
"ACAD_SEDONA"
 90
        0
280
     0
281
     1
  0
CLASS
  1
XRECORD
  2
AcDbXrecord
  3
"<Built In>"
 90
        0
280
     0
281
     0
  0
CLASS
  1
LONG_TRANSACTION
  2
AcDbLongTransaction
  3
AutoCAD 2000
 90
        0
280
     1
281
     0
  0
CLASS
  1
LWPOLYLINE
  2
AcDbPolyline
  3
"AutoCAD"
 90
        0
280
     0
281
     1
  0
CLASS
  1
HATCH
  2
AcDbHatch
  3
"ACAD_SEDONA"
 90
        0
280
     0
281
     1
  0
CLASS
  1
XRECORD
  2
AcDbXrecord
  3
"<Built In>"
 90
        0
280
     0
281
     0
  0
CLASS
  1
LONG_TRANSACTION
  2
AcDbLongTransaction
  3
AutoCAD 2000
 90
        0
280
     1
281
     0
  0
CLASS
  1
LWPOLYLINE
  2
AcDbPolyline
  3
"AutoCAD"
 90
        0
280
     0
281
     1
  0
CLASS
  1
HATCH
  2
AcDbHatch
  3
"ACAD_SEDONA"
 90
        0
280
     0
281
     1
  0
CLASS
  1
XRECORD
  2
AcDbXrecord
  3
"<Built In>"
 90
        0
280
     0
281
     0
  0
CLASS
  1
LONG_TRANSACTION
  2
AcDbLongTransaction
  3
AutoCAD 2000
 90
        0
280
     1
281
     0
  0
CLASS
  1
LWPOLYLINE
  2
AcDbPolyline
  3
"AutoCAD"
 90
        0
280
     0
281
     1
  0
CLASS
  1
HATCH
  2
AcDbHatch
  3
"ACAD_SEDONA"
 90
        0
280
     0
281
     1
  0
CLASS
  1
XRECORD
  2
AcDbXrecord
  3
"<Built In>"
 90
        0
280
     0
281
     0
  0
CLASS
  1
LONG_TRANSACTION
  2
AcDbLongTransaction
  3
AutoCAD 2000
 90
        0
280
     1
281
     0
  0
CLASS
  1
LWPOLYLINE
  2
AcDbPolyline
  3
"AutoCAD"
 90
        0
280
     0
281
     1
  0
CLASS
  1
HATCH
  2
AcDbHatch
  3
"ACAD_SEDONA"
 90
        0
280
     0
281
     1
  0
CLASS
  1
XRECORD
  2
AcDbXrecord
  3
"<Built In>"
 90
        0
280
     0
281
     0
  0
CLASS
  1
LONG_TRANSACTION
  2
AcDbLongTransaction
  3
AutoCAD 2000
 90
        0
280
     1
281
     0
  0
CLASS
  1
LWPOLYLINE
  2
AcDbPolyline
  3
"AutoCAD"
 90
        0
280
     0
281
     1
  0
CLASS
  1
HATCH
  2
AcDbHatch
  3
"ACAD_SEDONA"
 90
        0
280
     0
281
     1
  0
CLASS
  1
XRECORD
  2
AcDbXrecord
  3
"<Built In>"
 90
        0
280
     0
281
     0
  0
CLASS
  1
LONG_TRANSACTION
  2
AcDbLongTransaction
  3
AutoCAD 2000
 90
        0
280
     1
281
     0
  0
CLASS
  1
LWPOLYLINE
  2
AcDbPolyline
  3
"AutoCAD"
 90
        0
280
     0
281
     1
  0
CLASS
  1
HATCH
  2
AcDbHatch
  3
"ACAD_SEDONA"
 90
        0
280
     0
281
     1
  0
CLASS
  1
XRECORD
  2
AcDbXrecord
  3
"<Built In>"
 90
        0
280
     0
281
     0
  0
ENDSEC
  0
SECTION
  2
TABLES
  0
TABLE
  2
VPORT
  5
16
100
AcDbSymbolTable
 70
     2
  0
VPORT
  5
77E
100
AcDbSymbolTableRecord
100
AcDbViewportTableRecord
  2
*ACTIVE
 70
     0
 10
0.0
 20
0.0
 11
1.0
 21
1.0
 12
394.996718
 22
275.000011
 13
0.0
 23
0.0
 14
10.0
 24
10.0
 15
10.0
 25
10.0
 16
0.0
 26
0.0
 36
1.0
 17
0.0
 27
0.0
 37
0.0
 40
1112.015141
 41
1.670886
 42
50.0
 43
0.0
 44
0.0
 50
0.0
 51
0.0
 71
     0
 72
   100
 73
     1
 74
     0
 75
     0
 76
     0
 77
     0
 78
     1
  0
ENDTAB
  0
TABLE
  2
LTYPE
  5
11
100
AcDbSymbolTable
 70
     4
  0
LTYPE
  5
12
100
AcDbSymbolTableRecord
100
AcDbLinetypeTableRecord
  2
BYBLOCK
 70
     0
  3

 72
    65
 73
     0
 40
0.0
  0
LTYPE
  5
13
100
AcDbSymbolTableRecord
100
AcDbLinetypeTableRecord
  2
BYLAYER
 70
     0
  3

 72
    65
 73
     0
 40
0.0
  0
LTYPE
  5
7
100
AcDbSymbolTableRecord
100
AcDbLinetypeTableRecord
  2
CONTINUOUS
 70
     0
  3
Solid line
 72
    65
 73
     0
 40
0.0
  0
LTYPE
  5
37
100
AcDbSymbolTableRecord
100
AcDbLinetypeTableRecord
  2
CENTER
 70
     0
  3
____ _ ____ _ ____ _ ____ _ ____ _ ____ _ ____ 
 72
    65
 73
     4
 40
2.0
 49
1.25
 74
     0
 49
-0.25
 74
     0
 49
0.25
 74
     0
 49
-0.25
 74
     0
  0
LTYPE
  5
33
100
AcDbSymbolTableRecord
100
AcDbLinetypeTableRecord
  2
HIDDEN
 70
     0
  3
__ __ __ __ __ __ __ __ __ __ __ __ __ __ __ __
 72
    65
 73
     2
 40
0.375
 49
0.25
 74
     0
 49
-0.125
 74
     0
  0
LTYPE
  5
38
100
AcDbSymbolTableRecord
100
AcDbLinetypeTableRecord
  2
CENTER2
 70
     0
  3
___ _ ___ _ ___ _ ___ _ ___ _ ___ _ ___ _ ___ _
 72
    65
 73
     4
 40
1.125
 49
0.75
 74
     0
 49
-0.125
 74
     0
 49
0.125
 74
     0
 49
-0.125
 74
     0
  0
ENDTAB
  0
TABLE
  2
LAYER
  5
E
100
AcDbSymbolTable
 70
    12
  0
LAYER
  5
6
100
AcDbSymbolTableRecord
100
AcDbLayerTableRecord
  2
0
 70
     0
 62
     7
  6
CONTINUOUS
  0
LAYER
  5
26
100
AcDbSymbolTableRecord
100
AcDbLayerTableRecord
  2
WAKU
 70
     0
 62
     7
  6
CONTINUOUS
  0
LAYER
  5
2F
100
AcDbSymbolTableRecord
100
AcDbLayerTableRecord
  2
ADM
 70
     0
 62
     4
  6
CONTINUOUS
  0
LAYER
  5
1AE
100
AcDbSymbolTableRecord
100
AcDbLayerTableRecord
  2
ATX
 70
     0
 62
     3
  6
CONTINUOUS
  0
LAYER
  5
36
100
AcDbSymbolTableRecord
100
AcDbLayerTableRecord
  2
ACL
 70
     0
 62
     1
  6
CENTER
  0
LAYER
  5
3C
100
AcDbSymbolTableRecord
100
AcDbLayerTableRecord
  2
ALS
 70
     0
 62
     4
  6
CONTINUOUS
  0
LAYER
  5
56
100
AcDbSymbolTableRecord
100
AcDbLayerTableRecord
  2
AHJ
 70
     0
 62
     1
  6
CONTINUOUS
  0
LAYER
  5
5A
102
{ACAD_XDICTIONARY
360
5B
102
}
100
AcDbSymbolTableRecord
100
AcDbLayerTableRecord
  2
DEFPOINTS
 70
     0
 62
     7
  6
CONTINUOUS
  0
LAYER
  5
3A
100
AcDbSymbolTableRecord
100
AcDbLayerTableRecord
  2
1MOKU
 70
     0
 62
     7
  6
CONTINUOUS
  0
LAYER
  5
2C
100
AcDbSymbolTableRecord
100
AcDbLayerTableRecord
  2
1AL
 70
     0
 62
     3
  6
CONTINUOUS
  0
LAYER
  5
32
100
AcDbSymbolTableRecord
100
AcDbLayerTableRecord
  2
1BUHIN
 70
     0
 62
     4
  6
CONTINUOUS
  0
LAYER
  5
CF
100
AcDbSymbolTableRecord
100
AcDbLayerTableRecord
  2
1GASKET
 70
     0
 62
     2
  6
CONTINUOUS
  0
ENDTAB
  0
TABLE
  2
STYLE
  5
F
100
AcDbSymbolTable
 70
     1
  0
STYLE
  5
10
100
AcDbSymbolTableRecord
100
AcDbTextStyleTableRecord
  2
STANDARD
 70
     0
 40
0.0
 41
1.0
 50
0.0
 71
     0
 42
3.0
  3
romans
  4
bigfont
  0
ENDTAB
  0
TABLE
  2
VIEW
  5
14
100
AcDbSymbolTable
 70
     0
  0
ENDTAB
  0
TABLE
  2
UCS
  5
15
100
AcDbSymbolTable
 70
     0
  0
ENDTAB
  0
TABLE
  2
APPID
  5
18
100
AcDbSymbolTable
 70
     1
  0
APPID
  5
19
100
AcDbSymbolTableRecord
100
AcDbRegAppTableRecord
  2
ACAD
 70
     0
  0
ENDTAB
  0
TABLE
  2
DIMSTYLE
  5
1A
100
AcDbSymbolTable
 70
     1
  0
DIMSTYLE
105
22
102
{ACAD_XDICTIONARY
360
23
102
}
100
AcDbSymbolTableRecord
100
AcDbDimStyleTableRecord
  2
STANDARD
 70
     0
  3

  4

  5

  6

  7

 40
1.0
 41
2.0
 42
2.0
 43
0.0
 44
0.0
 45
0.0
 46
0.0
 47
0.0
 48
0.0
140
3.0
141
0.0
142
0.0
143
25.4
144
1.0
145
1.0
146
1.0
147
0.0
 71
     0
 72
     0
 73
     0
 74
     0
 75
     0
 76
     0
 77
     1
 78
     8
170
     0
171
     2
172
     1
173
     0
174
     1
175
     1
176
     0
177
     0
178
   256
270
     2
271
     8
272
     8
273
     2
274
     2
340
10
275
     0
280
     0
281
     0
282
     0
283
     1
284
     8
285
     8
286
     8
287
     5
288
     0
  0
ENDTAB
  0
TABLE
  2
BLOCK_RECORD
  5
1
100
AcDbSymbolTable
 70
     0
  0
BLOCK_RECORD
  5
2
102
{ACAD_XDICTIONARY
360
3
102
}
100
AcDbSymbolTableRecord
100
AcDbBlockTableRecord
  2
*MODEL_SPACE
  0
BLOCK_RECORD
  5
9
102
{ACAD_XDICTIONARY
360
A
102
}
100
AcDbSymbolTableRecord
100
AcDbBlockTableRecord
  2
*PAPER_SPACE
  0
ENDTAB
  0
ENDSEC
  0
SECTION
  2
BLOCKS
  0
BLOCK
  5
5
100
AcDbEntity
  8
0
100
AcDbBlockBegin
  2
*MODEL_SPACE
 70
     0
 10
0.0
 20
0.0
 30
0.0
  3
*MODEL_SPACE
  1

  0
ENDBLK
  5
8
100
AcDbEntity
  8
0
100
AcDbBlockEnd
  0
BLOCK
  5
C
100
AcDbEntity
 67
     1
  8
0
100
AcDbBlockBegin
  2
*PAPER_SPACE
 70
     0
 10
0.0
 20
0.0
 30
0.0
  3
*PAPER_SPACE
  1

  0
ENDBLK
  5
D
100
AcDbEntity
 67
     1
  8
0
100
AcDbBlockEnd
  0
ENDSEC
  0
SECTION
  2
ENTITIES
  0
TEXT
  5
25
100
AcDbEntity
  8
WAKU
 62
     4
100
AcDbText
 10
362.625222
 20
18.025679
 30
0.0
 40
4.4
  1
硝子建材事業本部
 72
     1
 11
383.158555
 21
18.025679
 31
0.0
100
AcDbText
  0
TEXT
  5
27
100
AcDbEntity
  8
WAKU
 62
     4
100
AcDbText
 10
298.049754
 20
8.972201
 30
0.0
 40
3.3
  1
東京都墨田区錦糸1丁目2番1号（アルカセントラル15階）
 72
     1
 11
350.016897
 21
8.972201
 31
0.0
100
AcDbText
  0
LINE
  5
28
100
AcDbEntity
  8
WAKU
100
AcDbLine
 10
790.0
 20
550.0
 30
0.0
 11
0.0
 21
550.0
 31
0.0
  0
LINE
  5
29
100
AcDbEntity
  8
WAKU
100
AcDbLine
 10
0.0
 20
32.0
 30
0.0
 11
790.0
 21
32.0
 31
0.0
  0
LINE
  5
2A
100
AcDbEntity
  8
WAKU
100
AcDbLine
 10
0.0
 20
0.0
 30
0.0
 11
790.0
 21
0.0
 31
0.0
  0
LINE
  5
2B
100
AcDbEntity
  8
1AL
100
AcDbLine
 10
386.866939
 20
359.603453
 30
0.0
 11
400.794226
 21
365.173971
 31
0.0
  0
LINE
  5
2D
100
AcDbEntity
  8
1AL
100
AcDbLine
 10
388.166792
 20
359.046335
 30
0.0
 11
401.05159
 21
364.199887
 31
0.0
  0
LINE
  5
2E
100
AcDbEntity
  8
ADM
 62
     0
100
AcDbLine
 10
315.292759
 20
183.186097
 30
0.0
 11
398.471747
 21
183.186097
 31
0.0
1001
ACAD
1000
RTLwPs
1070
   158
  0
LINE
  5
30
100
AcDbEntity
  8
ADM
 62
     0
100
AcDbLine
 10
373.67719
 20
218.186097
 30
0.0
 11
398.471747
 21
218.186097
 31
0.0
1001
ACAD
1000
RTLwPs
1070
   158
  0
LINE
  5
31
100
AcDbEntity
  8
1BUHIN
  6
HIDDEN
 48
0.5
100
AcDbLine
 10
386.641828
 20
358.127384
 30
0.0
 11
398.496588
 21
362.868949
 31
0.0
  0
LINE
  5
34
100
AcDbEntity
  8
1BUHIN
  6
HIDDEN
 48
0.5
100
AcDbLine
 10
386.564012
 20
358.730625
 30
0.0
 11
398.159623
 21
363.368538
 31
0.0
  0
LINE
  5
35
100
AcDbEntity
  8
ACL
  6
CENTER2
100
AcDbLine
 10
354.053411
 20
353.204157
 30
0.0
 11
403.465952
 21
229.663992
 31
0.0
  0
LINE
  5
39
100
AcDbEntity
  8
1MOKU
100
AcDbLine
 10
398.380136
 20
363.131381
 30
0.0
 11
356.743686
 21
346.47799
 31
0.0
  0
LINE
  5
3B
100
AcDbEntity
  8
ALS
100
AcDbLine
 10
393.509102
 20
254.557893
 30
0.0
 11
425.860694
 21
267.497606
 31
0.0
  0
LINE
  5
3D
100
AcDbEntity
  8
ACL
  6
CENTER2
100
AcDbLine
 10
394.941607
 20
366.342823
 30
0.0
 11
408.336283
 21
332.853743
 31
0.0
  0
LINE
  5
3E
100
AcDbEntity
  8
1MOKU
100
AcDbLine
 10
429.577022
 20
365.916044
 30
0.0
 11
390.580617
 21
350.318595
 31
0.0
  0
LINE
  5
3F
100
AcDbEntity
  8
1MOKU
100
AcDbLine
 10
411.007305
 20
358.488687
 30
0.0
 11
360.085997
 21
338.121617
 31
0.0
  0
LINE
  5
40
100
AcDbEntity
  8
1MOKU
100
AcDbLine
 10
392.437589
 20
351.061331
 30
0.0
 11
425.860694
 21
267.497606
 31
0.0
  0
LINE
  5
41
100
AcDbEntity
  8
ALS
100
AcDbLine
 10
392.437589
 20
351.061331
 30
0.0
 11
463.000127
 21
282.35232
 31
0.0
  0
LINE
  5
42
100
AcDbEntity
  8
WAKU
100
AcDbLine
 10
0.0
 20
0.0
 30
0.0
 11
0.0
 21
550.0
 31
0.0
  0
LINE
  5
43
100
AcDbEntity
  8
WAKU
 62
     1
100
AcDbLine
 10
0.0
 20
6.4
 30
0.0
 11
232.0
 21
6.4
 31
0.0
  0
LINE
  5
44
100
AcDbEntity
  8
WAKU
 62
     1
100
AcDbLine
 10
0.0
 20
12.8
 30
0.0
 11
232.0
 21
12.8
 31
0.0
  0
LINE
  5
45
100
AcDbEntity
  8
WAKU
 62
     1
100
AcDbLine
 10
0.0
 20
19.2
 30
0.0
 11
232.0
 21
19.2
 31
0.0
  0
LINE
  5
46
100
AcDbEntity
  8
WAKU
 62
     1
100
AcDbLine
 10
0.0
 20
25.6
 30
0.0
 11
232.0
 21
25.6
 31
0.0
  0
LINE
  5
47
100
AcDbEntity
  8
ADM
 62
     0
100
AcDbLine
 10
87.211203
 20
105.690066
 30
0.0
 11
172.501981
 21
105.690066
 31
0.0
1001
ACAD
1000
RTLwPs
1070
   158
  0
LINE
  5
48
100
AcDbEntity
  8
ADM
 62
     0
100
AcDbLine
 10
108.711203
 20
245.94185
 30
0.0
 11
151.001981
 21
245.94185
 31
0.0
1001
ACAD
1000
RTLwPs
1070
   158
  0
LINE
  5
49
100
AcDbEntity
  8
ADM
 62
     0
100
AcDbLine
 10
175.001981
 20
89.690066
 30
0.0
 11
84.711203
 21
89.690066
 31
0.0
1001
ACAD
1000
RTLwPs
1070
   158
  0
LINE
  5
4A
100
AcDbEntity
  8
ALS
  6
HIDDEN
100
AcDbLine
 10
164.501981
 20
214.186097
 30
0.0
 11
131.356592
 21
214.186097
 31
0.0
  0
LINE
  5
4B
100
AcDbEntity
  8
ALS
100
AcDbLine
 10
197.001981
 20
225.186097
 30
0.0
 11
131.356592
 21
225.186097
 31
0.0
  0
LINE
  5
4C
100
AcDbEntity
  8
ALS
100
AcDbLine
 10
174.501981
 20
183.186097
 30
0.0
 11
131.356592
 21
183.186097
 31
0.0
  0
LINE
  5
4D
100
AcDbEntity
  8
ALS
100
AcDbLine
 10
197.001981
 20
228.186097
 30
0.0
 11
131.356592
 21
228.186097
 31
0.0
  0
LINE
  5
4E
100
AcDbEntity
  8
ALS
  6
HIDDEN
100
AcDbLine
 10
152.101981
 20
205.186097
 30
0.0
 11
131.356592
 21
205.186097
 31
0.0
  0
LINE
  5
4F
100
AcDbEntity
  8
ALS
  6
HIDDEN
100
AcDbLine
 10
152.101981
 20
206.286097
 30
0.0
 11
131.356592
 21
206.286097
 31
0.0
  0
LINE
  5
50
100
AcDbEntity
  8
ALS
  6
HIDDEN
100
AcDbLine
 10
152.101981
 20
213.086097
 30
0.0
 11
131.356592
 21
213.086097
 31
0.0
  0
LINE
  5
51
100
AcDbEntity
  8
1BUHIN
100
AcDbLine
 10
163.001981
 20
223.186097
 30
0.0
 11
131.356592
 21
223.186097
 31
0.0
  0
LINE
  5
52
100
AcDbEntity
  8
ALS
100
AcDbLine
 10
197.001981
 20
225.186097
 30
0.0
 11
131.356592
 21
225.186097
 31
0.0
  0
LINE
  5
53
100
AcDbEntity
  8
1BUHIN
100
AcDbLine
 10
163.001981
 20
221.186097
 30
0.0
 11
131.356592
 21
221.186097
 31
0.0
  0
LINE
  5
54
100
AcDbEntity
  8
ADM
 62
     0
100
AcDbLine
 10
82.711203
 20
124.186097
 30
0.0
 11
82.711203
 21
87.290066
 31
0.0
1001
ACAD
1000
RTLwPs
1070
   158
  0
ARC
  5
55
100
AcDbEntity
  8
AHJ
  6
BYBLOCK
 62
     0
100
AcDbCircle
 10
82.711203
 20
89.690066
 30
0.0
 40
0.5
100
AcDbArc
 50
180.0
 51
0.0
  0
ARC
  5
57
100
AcDbEntity
  8
AHJ
  6
BYBLOCK
 62
     0
100
AcDbCircle
 10
82.711203
 20
89.690066
 30
0.0
 40
0.5
100
AcDbArc
 50
0.0
 51
180.0
  0
LINE
  5
58
100
AcDbEntity
  8
AHJ
  6
BYBLOCK
 62
     0
100
AcDbLine
 10
83.711203
 20
89.690066
 30
0.0
 11
84.711203
 21
89.690066
 31
0.0
  0
POINT
  5
59
100
AcDbEntity
  8
DEFPOINTS
 62
     0
100
AcDbPoint
 10
82.711203
 20
89.690066
 30
0.0
  0
TEXT
  5
5D
100
AcDbEntity
  8
0
 62
     0
100
AcDbText
 10
126.42802
 20
91.690066
 30
0.0
 40
6.0
  1
W
100
AcDbText
1001
ACAD
1000
MTEXTBEGIN
1070
    73
1070
     1
1070
    44
1040
1.0
1070
    74
1070
     0
1000
MTEXTEND
  0
LINE
  5
5E
100
AcDbEntity
  8
1AL
100
AcDbLine
 10
91.711203
 20
199.436097
 30
0.0
 11
91.711203
 21
188.186097
 31
0.0
  0
LINE
  5
5F
100
AcDbEntity
  8
1AL
100
AcDbLine
 10
92.711203
 20
201.186097
 30
0.0
 11
92.711203
 21
186.686097
 31
0.0
  0
LINE
  5
60
100
AcDbEntity
  8
1AL
  6
HIDDEN
100
AcDbLine
 10
93.711203
 20
186.786097
 30
0.0
 11
93.711203
 21
197.786097
 31
0.0
  0
LINE
  5
61
100
AcDbEntity
  8
1AL
  6
HIDDEN
100
AcDbLine
 10
94.711203
 20
197.686097
 30
0.0
 11
94.711203
 21
186.186097
 31
0.0
  0
ARC
  5
62
100
AcDbEntity
  8
1AL
100
AcDbCircle
 10
86.336203
 20
189.311097
 30
0.0
 40
0.625
100
AcDbArc
 50
90.0
 51
270.0
  0
LINE
  5
63
100
AcDbEntity
  8
1AL
100
AcDbLine
 10
91.711203
 20
188.686097
 30
0.0
 11
91.711203
 21
199.186097
 31
0.0
  0
LINE
  5
64
100
AcDbEntity
  8
ACL
  6
CENTER2
100
AcDbLine
 10
131.356592
 20
237.945291
 30
0.0
 11
131.356592
 21
175.168833
 31
0.0
  0
LINE
  5
65
100
AcDbEntity
  8
ACL
  6
CENTER2
100
AcDbLine
 10
128.356592
 20
237.945291
 30
0.0
 11
128.356592
 21
175.168833
 31
0.0
  0
LINE
  5
66
100
AcDbEntity
  8
ALS
100
AcDbLine
 10
93.211203
 20
197.996199
 30
0.0
 11
93.211203
 21
186.286097
 31
0.0
  0
LINE
  5
67
100
AcDbEntity
  8
ALS
100
AcDbLine
 10
85.211203
 20
218.186097
 30
0.0
 11
85.211203
 21
183.186097
 31
0.0
  0
LINE
  5
68
100
AcDbEntity
  8
1MOKU
100
AcDbLine
 10
82.711203
 20
218.186097
 30
0.0
 11
82.711203
 21
128.186097
 31
0.0
  0
LINE
  5
69
100
AcDbEntity
  8
1MOKU
100
AcDbLine
 10
42.711203
 20
218.186097
 30
0.0
 11
42.711203
 21
128.186097
 31
0.0
  0
LINE
  5
6A
100
AcDbEntity
  8
ALS
100
AcDbLine
 10
82.711203
 20
218.186097
 30
0.0
 11
42.711203
 21
128.186097
 31
0.0
  0
LINE
  5
6B
100
AcDbEntity
  8
ALS
100
AcDbLine
 10
42.711203
 20
218.186097
 30
0.0
 11
82.711203
 21
128.186097
 31
0.0
  0
LINE
  5
6C
100
AcDbEntity
  8
ACL
  6
CENTER2
100
AcDbLine
 10
62.711203
 20
237.945291
 30
0.0
 11
62.711203
 21
121.134003
 31
0.0
  0
LINE
  5
6D
100
AcDbEntity
  8
AHJ
  6
BYBLOCK
 62
     0
100
AcDbLine
 10
86.211203
 20
105.690066
 30
0.0
 11
87.211203
 21
105.690066
 31
0.0
  0
LINE
  5
6E
100
AcDbEntity
  8
1AL
100
AcDbLine
 10
86.336203
 20
188.686097
 30
0.0
 11
89.711203
 21
188.686097
 31
0.0
  0
LINE
  5
6F
100
AcDbEntity
  8
ALS
100
AcDbLine
 10
128.356592
 20
183.186097
 30
0.0
 11
85.211203
 21
183.186097
 31
0.0
  0
LINE
  5
70
100
AcDbEntity
  8
ADM
 62
     0
100
AcDbLine
 10
85.211203
 20
179.186097
 30
0.0
 11
85.211203
 21
103.290066
 31
0.0
1001
ACAD
1000
RTLwPs
1070
   158
  0
LINE
  5
71
100
AcDbEntity
  8
1MOKU
100
AcDbLine
 10
82.711203
 20
128.186097
 30
0.0
 11
42.711203
 21
128.186097
 31
0.0
  0
ARC
  5
72
100
AcDbEntity
  8
AHJ
  6
BYBLOCK
 62
     0
100
AcDbCircle
 10
85.211203
 20
105.690066
 30
0.0
 40
0.5
100
AcDbArc
 50
180.0
 51
0.0
  0
ARC
  5
73
100
AcDbEntity
  8
AHJ
  6
BYBLOCK
 62
     0
100
AcDbCircle
 10
85.211203
 20
105.690066
 30
0.0
 40
0.5
100
AcDbArc
 50
0.0
 51
180.0
  0
POINT
  5
74
100
AcDbEntity
  8
DEFPOINTS
 62
     0
100
AcDbPoint
 10
82.711203
 20
128.186097
 30
0.0
  0
POINT
  5
75
100
AcDbEntity
  8
DEFPOINTS
 62
     0
100
AcDbPoint
 10
85.211203
 20
183.186097
 30
0.0
  0
TEXT
  5
76
100
AcDbEntity
  8
0
 62
     0
100
AcDbText
 10
119.999449
 20
107.690066
 30
0.0
 40
6.0
  1
W-5
100
AcDbText
1001
ACAD
1000
MTEXTBEGIN
1070
    73
1070
     1
1070
    44
1040
1.0
1070
    74
1070
     0
1000
MTEXTEND
  0
ARC
  5
77
100
AcDbEntity
  8
1AL
  6
HIDDEN
100
AcDbCircle
 10
93.711203
 20
186.186097
 30
0.0
 40
1.0
100
AcDbArc
 50
270.0
 51
0.0
  0
LINE
  5
78
100
AcDbEntity
  8
1AL
100
AcDbLine
 10
91.711203
 20
188.186097
 30
0.0
 11
90.711203
 21
188.186097
 31
0.0
  0
LINE
  5
79
100
AcDbEntity
  8
1AL
100
AcDbLine
 10
88.711203
 20
183.186097
 30
0.0
 11
88.711203
 21
184.686097
 31
0.0
  0
LINE
  5
7A
100
AcDbEntity
  8
1AL
100
AcDbLine
 10
89.711203
 20
185.186097
 30
0.0
 11
89.711203
 21
184.186097
 31
0.0
  0
LINE
  5
7B
100
AcDbEntity
  8
1AL
100
AcDbLine
 10
90.711203
 20
184.186097
 30
0.0
 11
89.711203
 21
184.186097
 31
0.0
  0
LINE
  5
7C
100
AcDbEntity
  8
1AL
100
AcDbLine
 10
89.711203
 20
185.186097
 30
0.0
 11
89.211203
 21
185.186097
 31
0.0
  0
ARC
  5
7D
100
AcDbEntity
  8
1AL
100
AcDbCircle
 10
89.211203
 20
184.686097
 30
0.0
 40
0.5
100
AcDbArc
 50
90.0
 51
180.0
  0
LINE
  5
7E
100
AcDbEntity
  8
1AL
100
AcDbLine
 10
91.711203
 20
186.686097
 30
0.0
 11
91.711203
 21
185.186097
 31
0.0
  0
LINE
  5
7F
100
AcDbEntity
  8
1AL
100
AcDbLine
 10
92.711203
 20
185.186097
 30
0.0
 11
91.711203
 21
185.186097
 31
0.0
  0
LINE
  5
80
100
AcDbEntity
  8
1AL
100
AcDbLine
 10
92.711203
 20
186.686097
 30
0.0
 11
91.711203
 21
186.686097
 31
0.0
  0
LINE
  5
81
100
AcDbEntity
  8
1AL
100
AcDbLine
 10
92.711203
 20
185.186097
 30
0.0
 11
92.711203
 21
183.186097
 31
0.0
  0
LINE
  5
82
100
AcDbEntity
  8
1AL
100
AcDbLine
 10
92.711203
 20
183.186097
 30
0.0
 11
88.711203
 21
183.186097
 31
0.0
  0
LINE
  5
83
100
AcDbEntity
  8
1AL
100
AcDbLine
 10
90.711203
 20
188.186097
 30
0.0
 11
90.711203
 21
184.186097
 31
0.0
  0
ARC
  5
84
100
AcDbEntity
  8
1AL
  6
HIDDEN
100
AcDbCircle
 10
93.211203
 20
186.786097
 30
0.0
 40
0.5
100
AcDbArc
 50
270.0
 51
0.0
  0
LINE
  5
85
100
AcDbEntity
  8
1AL
  6
HIDDEN
100
AcDbLine
 10
91.711203
 20
186.286097
 30
0.0
 11
93.211203
 21
186.286097
 31
0.0
  0
LINE
  5
86
100
AcDbEntity
  8
1AL
  6
HIDDEN
100
AcDbLine
 10
91.711203
 20
185.186097
 30
0.0
 11
91.711203
 21
186.286097
 31
0.0
  0
LINE
  5
87
100
AcDbEntity
  8
1AL
  6
HIDDEN
100
AcDbLine
 10
93.711203
 20
185.186097
 30
0.0
 11
91.711203
 21
185.186097
 31
0.0
  0
LINE
  5
88
100
AcDbEntity
  8
ADM
100
AcDbLine
 10
92.152647
 20
189.042019
 30
0.0
 11
92.152647
 21
189.042019
 31
0.0
  0
LINE
  5
89
100
AcDbEntity
  8
ADM
100
AcDbLine
 10
90.787761
 20
188.057581
 30
0.0
 11
90.787761
 21
188.057581
 31
0.0
  0
LINE
  5
8A
100
AcDbEntity
  8
ADM
100
AcDbLine
 10
92.00063
 20
188.359984
 30
0.0
 11
92.00063
 21
188.359984
 31
0.0
  0
LINE
  5
8B
100
AcDbEntity
  8
ADM
100
AcDbLine
 10
92.607065
 20
188.511185
 30
0.0
 11
92.607065
 21
188.511185
 31
0.0
  0
LINE
  5
8C
100
AcDbEntity
  8
ADM
100
AcDbLine
 10
91.242179
 20
187.526747
 30
0.0
 11
91.242179
 21
187.526747
 31
0.0
  0
LINE
  5
8D
100
AcDbEntity
  8
ADM
100
AcDbLine
 10
91.848614
 20
187.677948
 30
0.0
 11
91.848614
 21
187.677948
 31
0.0
  0
LINE
  5
8E
100
AcDbEntity
  8
ADM
100
AcDbLine
 10
92.455049
 20
187.82915
 30
0.0
 11
92.455049
 21
187.82915
 31
0.0
  0
LINE
  5
8F
100
AcDbEntity
  8
ADM
100
AcDbLine
 10
91.090163
 20
186.844712
 30
0.0
 11
91.090163
 21
186.844712
 31
0.0
  0
LINE
  5
90
100
AcDbEntity
  8
ADM
100
AcDbLine
 10
91.696598
 20
186.995913
 30
0.0
 11
91.696598
 21
186.995913
 31
0.0
  0
LINE
  5
91
100
AcDbEntity
  8
ADM
100
AcDbLine
 10
92.303033
 20
187.147114
 30
0.0
 11
92.303033
 21
187.147114
 31
0.0
  0
LINE
  5
92
100
AcDbEntity
  8
ADM
100
AcDbLine
 10
90.938147
 20
186.162676
 30
0.0
 11
90.938147
 21
186.162676
 31
0.0
  0
LINE
  5
93
100
AcDbEntity
  8
ADM
100
AcDbLine
 10
91.544582
 20
186.313878
 30
0.0
 11
91.544582
 21
186.313878
 31
0.0
  0
LINE
  5
94
100
AcDbEntity
  8
ADM
100
AcDbLine
 10
88.966826
 20
185.027037
 30
0.0
 11
88.966826
 21
185.027037
 31
0.0
  0
LINE
  5
95
100
AcDbEntity
  8
ADM
100
AcDbLine
 10
89.573261
 20
185.178239
 30
0.0
 11
89.573261
 21
185.178239
 31
0.0
  0
LINE
  5
96
100
AcDbEntity
  8
ADM
100
AcDbLine
 10
90.786131
 20
185.480641
 30
0.0
 11
90.786131
 21
185.480641
 31
0.0
  0
LINE
  5
97
100
AcDbEntity
  8
ADM
100
AcDbLine
 10
91.392565
 20
185.631842
 30
0.0
 11
91.392565
 21
185.631842
 31
0.0
  0
LINE
  5
98
100
AcDbEntity
  8
ADM
100
AcDbLine
 10
88.81481
 20
184.345002
 30
0.0
 11
88.81481
 21
184.345002
 31
0.0
  0
LINE
  5
99
100
AcDbEntity
  8
ADM
100
AcDbLine
 10
89.421245
 20
184.496203
 30
0.0
 11
89.421245
 21
184.496203
 31
0.0
  0
LINE
  5
9A
100
AcDbEntity
  8
ADM
100
AcDbLine
 10
91.240549
 20
184.949807
 30
0.0
 11
91.240549
 21
184.949807
 31
0.0
  0
LINE
  5
9B
100
AcDbEntity
  8
ADM
100
AcDbLine
 10
91.846984
 20
185.101008
 30
0.0
 11
91.846984
 21
185.101008
 31
0.0
  0
LINE
  5
9C
100
AcDbEntity
  8
ADM
100
AcDbLine
 10
89.269228
 20
183.814168
 30
0.0
 11
89.269228
 21
183.814168
 31
0.0
  0
LINE
  5
9D
100
AcDbEntity
  8
ADM
100
AcDbLine
 10
89.875663
 20
183.965369
 30
0.0
 11
89.875663
 21
183.965369
 31
0.0
  0
LINE
  5
9E
100
AcDbEntity
  8
ADM
100
AcDbLine
 10
90.482098
 20
184.11657
 30
0.0
 11
90.482098
 21
184.11657
 31
0.0
  0
LINE
  5
9F
100
AcDbEntity
  8
ADM
100
AcDbLine
 10
91.088533
 20
184.267771
 30
0.0
 11
91.088533
 21
184.267771
 31
0.0
  0
LINE
  5
A0
100
AcDbEntity
  8
ADM
100
AcDbLine
 10
91.694968
 20
184.418972
 30
0.0
 11
91.694968
 21
184.418972
 31
0.0
  0
LINE
  5
A1
100
AcDbEntity
  8
ADM
100
AcDbLine
 10
92.301403
 20
184.570174
 30
0.0
 11
92.301403
 21
184.570174
 31
0.0
  0
LINE
  5
A2
100
AcDbEntity
  8
ADM
100
AcDbLine
 10
89.723647
 20
183.283334
 30
0.0
 11
89.723647
 21
183.283334
 31
0.0
  0
LINE
  5
A3
100
AcDbEntity
  8
ADM
100
AcDbLine
 10
90.330082
 20
183.434535
 30
0.0
 11
90.330082
 21
183.434535
 31
0.0
  0
LINE
  5
A4
100
AcDbEntity
  8
ADM
100
AcDbLine
 10
90.936517
 20
183.585736
 30
0.0
 11
90.936517
 21
183.585736
 31
0.0
  0
LINE
  5
A5
100
AcDbEntity
  8
ADM
100
AcDbLine
 10
91.542952
 20
183.736937
 30
0.0
 11
91.542952
 21
183.736937
 31
0.0
  0
LINE
  5
A6
100
AcDbEntity
  8
ADM
100
AcDbLine
 10
92.149386
 20
183.888138
 30
0.0
 11
92.149386
 21
183.888138
 31
0.0
  0
LINE
  5
A7
100
AcDbEntity
  8
ADM
100
AcDbLine
 10
91.99737
 20
183.206103
 30
0.0
 11
91.99737
 21
183.206103
 31
0.0
  0
LINE
  5
A8
100
AcDbEntity
  8
ADM
100
AcDbLine
 10
92.603805
 20
183.357304
 30
0.0
 11
92.603805
 21
183.357304
 31
0.0
  0
LINE
  5
A9
100
AcDbEntity
  8
1AL
100
AcDbLine
 10
90.711203
 20
185.186097
 30
0.0
 11
90.711203
 21
188.686097
 31
0.0
  0
LINE
  5
AA
100
AcDbEntity
  8
1AL
100
AcDbLine
 10
90.711203
 20
188.686097
 30
0.0
 11
91.711203
 21
188.686097
 31
0.0
  0
LINE
  5
AB
100
AcDbEntity
  8
1AL
100
AcDbLine
 10
89.711203
 20
184.186097
 30
0.0
 11
89.711203
 21
184.186097
 31
0.0
  0
LINE
  5
AC
100
AcDbEntity
  8
1AL
100
AcDbLine
 10
89.711203
 20
184.186097
 30
0.0
 11
89.711203
 21
188.686097
 31
0.0
  0
ARC
  5
AD
100
AcDbEntity
  8
1AL
100
AcDbCircle
 10
89.711203
 20
185.186097
 30
0.0
 40
1.0
100
AcDbArc
 50
270.0
 51
0.0
  0
LINE
  5
AE
100
AcDbEntity
  8
ALS
100
AcDbLine
 10
93.211203
 20
185.186097
 30
0.0
 11
93.211203
 21
183.186097
 31
0.0
  0
LINE
  5
AF
100
AcDbEntity
  8
1AL
100
AcDbLine
 10
86.211203
 20
209.436097
 30
0.0
 11
89.711203
 21
209.436097
 31
0.0
  0
LINE
  5
B0
100
AcDbEntity
  8
1AL
100
AcDbLine
 10
86.336203
 20
205.686097
 30
0.0
 11
89.711203
 21
205.686097
 31
0.0
  0
LINE
  5
B1
100
AcDbEntity
  8
1AL
100
AcDbLine
 10
86.336203
 20
206.936097
 30
0.0
 11
89.711203
 21
206.936097
 31
0.0
  0
LINE
  5
B2
100
AcDbEntity
  8
1AL
100
AcDbLine
 10
86.336203
 20
189.936097
 30
0.0
 11
89.711203
 21
189.936097
 31
0.0
  0
LINE
  5
B3
100
AcDbEntity
  8
1AL
100
AcDbLine
 10
86.211203
 20
192.436097
 30
0.0
 11
89.711203
 21
192.436097
 31
0.0
  0
LINE
  5
B4
100
AcDbEntity
  8
1AL
100
AcDbLine
 10
89.711203
 20
220.186097
 30
0.0
 11
79.711203
 21
220.186097
 31
0.0
  0
LINE
  5
B5
100
AcDbEntity
  8
1AL
100
AcDbLine
 10
89.711203
 20
219.186097
 30
0.0
 11
79.711203
 21
219.186097
 31
0.0
  0
LINE
  5
B6
100
AcDbEntity
  8
ACL
  6
CENTER
100
AcDbLine
 10
85.55722
 20
191.186097
 30
0.0
 11
97.618257
 21
191.186097
 31
0.0
  0
LINE
  5
B7
100
AcDbEntity
  8
ACL
  6
CENTER
100
AcDbLine
 10
85.307251
 20
195.686097
 30
0.0
 11
93.55625
 21
195.686097
 31
0.0
  0
LINE
  5
B8
100
AcDbEntity
  8
ACL
  6
CENTER
100
AcDbLine
 10
85.55722
 20
208.186097
 30
0.0
 11
97.618257
 21
208.186097
 31
0.0
  0
LINE
  5
B9
100
AcDbEntity
  8
ACL
  6
CENTER
100
AcDbLine
 10
93.049199
 20
212.686097
 30
0.0
 11
84.807312
 21
212.686097
 31
0.0
  0
LINE
  5
BA
100
AcDbEntity
  8
ACL
  6
CENTER2
100
AcDbLine
 10
85.84124
 20
191.186097
 30
0.0
 11
97.679444
 21
191.186097
 31
0.0
  0
LINE
  5
BB
100
AcDbEntity
  8
ALS
100
AcDbLine
 10
128.356592
 20
228.186097
 30
0.0
 11
70.711203
 21
228.186097
 31
0.0
  0
LINE
  5
BC
100
AcDbEntity
  8
ACL
  6
CENTER2
100
AcDbLine
 10
26.378215
 20
235.41756
 30
0.0
 11
26.378215
 21
206.296171
 31
0.0
  0
LINE
  5
BD
100
AcDbEntity
  8
1BUHIN
  6
HIDDEN
 48
0.5
100
AcDbLine
 10
42.015463
 20
227.640752
 30
0.0
 11
62.711203
 21
227.640752
 31
0.0
  0
LINE
  5
BE
100
AcDbEntity
  8
1BUHIN
  6
HIDDEN
 48
0.5
100
AcDbLine
 10
26.378215
 20
228.229751
 30
0.0
 11
62.711203
 21
228.229751
 31
0.0
  0
LINE
  5
BF
100
AcDbEntity
  8
1MOKU
100
AcDbLine
 10
81.211203
 20
218.186097
 30
0.0
 11
41.211203
 21
218.186097
 31
0.0
  0
LINE
  5
C0
100
AcDbEntity
  8
ALS
100
AcDbLine
 10
85.211203
 20
218.186097
 30
0.0
 11
41.711203
 21
218.186097
 31
0.0
  0
LINE
  5
C1
100
AcDbEntity
  8
1MOKU
100
AcDbLine
 10
62.711203
 20
227.186097
 30
0.0
 11
26.378215
 21
227.186097
 31
0.0
  0
LINE
  5
C2
100
AcDbEntity
  8
1MOKU
100
AcDbLine
 10
65.211203
 20
218.186097
 30
0.0
 11
26.378215
 21
218.186097
 31
0.0
  0
LINE
  5
C3
100
AcDbEntity
  8
1AL
100
AcDbLine
 10
85.711203
 20
209.936097
 30
0.0
 11
85.711203
 21
210.954046
 31
0.0
  0
LINE
  5
C4
100
AcDbEntity
  8
ACL
  6
CENTER2
100
AcDbLine
 10
75.711203
 20
227.944834
 30
0.0
 11
75.711203
 21
191.876346
 31
0.0
  0
LINE
  5
C5
100
AcDbEntity
  8
1AL
100
AcDbLine
 10
85.711203
 20
192.936097
 30
0.0
 11
85.711203
 21
193.954046
 31
0.0
  0
ARC
  5
C6
100
AcDbEntity
  8
1AL
100
AcDbCircle
 10
86.211203
 20
192.936097
 30
0.0
 40
0.5
100
AcDbArc
 50
180.0
 51
270.0
  0
ARC
  5
C7
100
AcDbEntity
  8
1AL
100
AcDbCircle
 10
86.211203
 20
209.936097
 30
0.0
 40
0.5
100
AcDbArc
 50
180.0
 51
270.0
  0
ARC
  5
C8
100
AcDbEntity
  8
1AL
100
AcDbCircle
 10
86.336203
 20
206.311097
 30
0.0
 40
0.625
100
AcDbArc
 50
90.0
 51
270.0
  0
ARC
  5
C9
100
AcDbEntity
  8
1AL
100
AcDbCircle
 10
71.211203
 20
224.686097
 30
0.0
 40
0.5
100
AcDbArc
 50
0.0
 51
180.0
  0
ARC
  5
CA
100
AcDbEntity
  8
1AL
100
AcDbCircle
 10
71.211203
 20
218.686097
 30
0.0
 40
0.5
100
AcDbArc
 50
180.0
 51
0.0
  0
LINE
  5
CB
100
AcDbEntity
  8
1BUHIN
  6
HIDDEN
 48
0.5
100
AcDbLine
 10
62.711203
 20
227.640752
 30
0.0
 11
70.972962
 21
225.544728
 31
0.0
  0
LINE
  5
CC
100
AcDbEntity
  8
1BUHIN
  6
HIDDEN
 48
0.5
100
AcDbLine
 10
62.711203
 20
228.229751
 30
0.0
 11
70.972962
 21
226.133727
 31
0.0
  0
LINE
  5
CD
100
AcDbEntity
  8
ALS
100
AcDbLine
 10
80.711203
 20
225.186097
 30
0.0
 11
70.711203
 21
225.186097
 31
0.0
  0
LINE
  5
CE
100
AcDbEntity
  8
1GASKET
100
AcDbLine
 10
70.711203
 20
224.686097
 30
0.0
 11
70.711203
 21
218.186097
 31
0.0
  0
LINE
  5
D0
100
AcDbEntity
  8
1GASKET
100
AcDbLine
 10
62.711203
 20
218.186097
 30
0.0
 11
62.711203
 21
227.186097
 31
0.0
  0
LINE
  5
D1
100
AcDbEntity
  8
1AL
100
AcDbLine
 10
70.711203
 20
224.686097
 30
0.0
 11
70.711203
 21
218.686097
 31
0.0
  0
LINE
  5
D2
100
AcDbEntity
  8
ALS
100
AcDbLine
 10
70.711203
 20
228.186097
 30
0.0
 11
70.711203
 21
218.186097
 31
0.0
  0
LINE
  5
D3
100
AcDbEntity
  8
1GASKET
100
AcDbLine
 10
70.711203
 20
218.186097
 30
0.0
 11
62.711203
 21
218.186097
 31
0.0
  0
ARC
  5
D4
100
AcDbEntity
  8
1GASKET
100
AcDbCircle
 10
69.236393
 20
234.016707
 30
0.0
 40
9.446446
100
AcDbArc
 50
226.310006
 51
278.981945
  0
LINE
  5
D5
100
AcDbEntity
  8
1AL
100
AcDbLine
 10
79.711203
 20
224.686097
 30
0.0
 11
79.711203
 21
220.186097
 31
0.0
  0
LINE
  5
D6
100
AcDbEntity
  8
1AL
100
AcDbLine
 10
78.711203
 20
223.686097
 30
0.0
 11
78.711203
 21
218.686097
 31
0.0
  0
LINE
  5
D7
100
AcDbEntity
  8
1AL
100
AcDbLine
 10
71.711203
 20
223.686097
 30
0.0
 11
71.711203
 21
218.686097
 31
0.0
  0
LINE
  5
D8
100
AcDbEntity
  8
ALS
100
AcDbLine
 10
80.711203
 20
225.186097
 30
0.0
 11
80.711203
 21
220.186097
 31
0.0
  0
LINE
  5
D9
100
AcDbEntity
  8
1AL
100
AcDbLine
 10
79.711203
 20
219.186097
 30
0.0
 11
79.711203
 21
218.686097
 31
0.0
  0
ARC
  5
DA
100
AcDbEntity
  8
1AL
100
AcDbCircle
 10
79.211203
 20
218.686097
 30
0.0
 40
0.5
100
AcDbArc
 50
180.0
 51
0.0
  0
LINE
  5
DB
100
AcDbEntity
  8
1AL
100
AcDbLine
 10
79.711203
 20
224.686097
 30
0.0
 11
71.711203
 21
224.686097
 31
0.0
  0
LINE
  5
DC
100
AcDbEntity
  8
1AL
100
AcDbLine
 10
78.711203
 20
223.686097
 30
0.0
 11
71.711203
 21
223.686097
 31
0.0
  0
LINE
  5
DD
100
AcDbEntity
  8
1BUHIN
  6
HIDDEN
 48
0.5
100
AcDbLine
 10
70.972962
 20
225.544728
 30
0.0
 11
80.535283
 21
225.544728
 31
0.0
  0
LINE
  5
DE
100
AcDbEntity
  8
1BUHIN
  6
HIDDEN
 48
0.5
100
AcDbLine
 10
70.972962
 20
226.133727
 30
0.0
 11
80.535283
 21
226.133727
 31
0.0
  0
LINE
  5
DF
100
AcDbEntity
  8
ADM
 62
     0
100
AcDbLine
 10
106.711203
 20
229.186097
 30
0.0
 11
106.711203
 21
248.34185
 31
0.0
1001
ACAD
1000
RTLwPs
1070
   158
  0
LINE
  5
E0
100
AcDbEntity
  8
1BUHIN
100
AcDbLine
 10
128.356592
 20
221.186097
 30
0.0
 11
96.711203
 21
221.186097
 31
0.0
  0
LINE
  5
E1
100
AcDbEntity
  8
1BUHIN
100
AcDbLine
 10
128.356592
 20
223.186097
 30
0.0
 11
96.711203
 21
223.186097
 31
0.0
  0
LINE
  5
E2
100
AcDbEntity
  8
ALS
100
AcDbLine
 10
128.356592
 20
225.186097
 30
0.0
 11
106.711203
 21
225.186097
 31
0.0
  0
LINE
  5
E3
100
AcDbEntity
  8
ALS
100
AcDbLine
 10
128.356592
 20
225.186097
 30
0.0
 11
88.711203
 21
225.186097
 31
0.0
  0
LINE
  5
E4
100
AcDbEntity
  8
ALS
  6
HIDDEN
100
AcDbLine
 10
128.356592
 20
214.186097
 30
0.0
 11
106.711203
 21
214.186097
 31
0.0
  0
LINE
  5
E5
100
AcDbEntity
  8
ALS
  6
HIDDEN
100
AcDbLine
 10
128.356592
 20
213.086097
 30
0.0
 11
106.711203
 21
213.086097
 31
0.0
  0
LINE
  5
E6
100
AcDbEntity
  8
ALS
  6
HIDDEN
100
AcDbLine
 10
128.356592
 20
206.286097
 30
0.0
 11
106.711203
 21
206.286097
 31
0.0
  0
LINE
  5
E7
100
AcDbEntity
  8
ALS
  6
HIDDEN
100
AcDbLine
 10
128.356592
 20
205.186097
 30
0.0
 11
107.611203
 21
205.186097
 31
0.0
  0
LINE
  5
E8
100
AcDbEntity
  8
1AL
100
AcDbLine
 10
92.711203
 20
217.186097
 30
0.0
 11
92.711203
 21
202.686097
 31
0.0
  0
LINE
  5
E9
100
AcDbEntity
  8
1AL
100
AcDbLine
 10
91.711203
 20
214.686097
 30
0.0
 11
91.711203
 21
205.436097
 31
0.0
  0
LINE
  5
EA
100
AcDbEntity
  8
1AL
100
AcDbLine
 10
93.711203
 20
202.786097
 30
0.0
 11
93.711203
 21
213.786097
 31
0.0
  0
LINE
  5
EB
100
AcDbEntity
  8
1AL
100
AcDbLine
 10
94.711203
 20
202.186097
 30
0.0
 11
94.711203
 21
213.686097
 31
0.0
  0
LINE
  5
EC
100
AcDbEntity
  8
1AL
  6
HIDDEN
100
AcDbLine
 10
99.611203
 20
205.186097
 30
0.0
 11
99.611203
 21
214.186097
 31
0.0
  0
LINE
  5
ED
100
AcDbEntity
  8
1AL
  6
HIDDEN
100
AcDbLine
 10
100.711203
 20
213.086097
 30
0.0
 11
100.711203
 21
206.286097
 31
0.0
  0
LINE
  5
EE
100
AcDbEntity
  8
1AL
100
AcDbLine
 10
91.711203
 20
205.686097
 30
0.0
 11
91.711203
 21
215.186097
 31
0.0
  0
LINE
  5
EF
100
AcDbEntity
  8
ACL
  6
CENTER
100
AcDbLine
 10
88.711203
 20
192.436097
 30
0.0
 11
88.711203
 21
217.526559
 31
0.0
  0
LINE
  5
F0
100
AcDbEntity
  8
1AL
  6
HIDDEN
100
AcDbLine
 10
105.711203
 20
198.186097
 30
0.0
 11
95.211203
 21
198.186097
 31
0.0
  0
ARC
  5
F1
100
AcDbEntity
  8
1AL
  6
HIDDEN
100
AcDbCircle
 10
102.211203
 20
188.186097
 30
0.0
 40
17.0
100
AcDbArc
 50
77.364375
 51
105.349477
  0
LINE
  5
F2
100
AcDbEntity
  8
1AL
  6
HIDDEN
100
AcDbLine
 10
105.211203
 20
203.186097
 30
0.0
 11
97.711203
 21
203.186097
 31
0.0
  0
LINE
  5
F3
100
AcDbEntity
  8
1AL
  6
HIDDEN
100
AcDbLine
 10
93.711203
 20
199.186097
 30
0.0
 11
105.211203
 21
199.186097
 31
0.0
  0
LINE
  5
F4
100
AcDbEntity
  8
1AL
  6
HIDDEN
100
AcDbLine
 10
107.611203
 20
205.186097
 30
0.0
 11
99.611203
 21
205.186097
 31
0.0
  0
LINE
  5
F5
100
AcDbEntity
  8
1AL
  6
HIDDEN
100
AcDbLine
 10
100.711203
 20
206.286097
 30
0.0
 11
107.611203
 21
206.286097
 31
0.0
  0
LINE
  5
F6
100
AcDbEntity
  8
1AL
100
AcDbLine
 10
90.711203
 20
205.436097
 30
0.0
 11
90.711203
 21
199.436097
 31
0.0
  0
LINE
  5
F7
100
AcDbEntity
  8
1AL
100
AcDbLine
 10
90.711203
 20
199.186097
 30
0.0
 11
90.711203
 21
205.686097
 31
0.0
  0
LINE
  5
F8
100
AcDbEntity
  8
1AL
100
AcDbLine
 10
89.711203
 20
199.402614
 30
0.0
 11
89.711203
 21
205.686097
 31
0.0
  0
LINE
  5
F9
100
AcDbEntity
  8
ALS
100
AcDbLine
 10
93.211203
 20
201.186097
 30
0.0
 11
93.211203
 21
198.975995
 31
0.0
  0
LINE
  5
FA
100
AcDbEntity
  8
1AL
100
AcDbLine
 10
91.711203
 20
199.436097
 30
0.0
 11
90.711203
 21
199.436097
 31
0.0
  0
ARC
  5
FB
100
AcDbEntity
  8
1AL
  6
HIDDEN
100
AcDbCircle
 10
93.711203
 20
198.486097
 30
0.0
 40
0.7
100
AcDbArc
 50
90.0
 51
270.0
  0
LINE
  5
FC
100
AcDbEntity
  8
ADM
100
AcDbLine
 10
91.098314
 20
199.729414
 30
0.0
 11
91.098314
 21
199.729414
 31
0.0
  0
LINE
  5
FD
100
AcDbEntity
  8
ADM
100
AcDbLine
 10
92.159167
 20
199.349781
 30
0.0
 11
92.159167
 21
199.349781
 31
0.0
  0
LINE
  5
FE
100
AcDbEntity
  8
ADM
100
AcDbLine
 10
92.007151
 20
198.667746
 30
0.0
 11
92.007151
 21
198.667746
 31
0.0
  0
LINE
  5
FF
100
AcDbEntity
  8
ADM
100
AcDbLine
 10
92.613586
 20
198.818947
 30
0.0
 11
92.613586
 21
198.818947
 31
0.0
  0
LINE
  5
100
100
AcDbEntity
  8
ADM
100
AcDbLine
 10
91.855134
 20
197.98571
 30
0.0
 11
91.855134
 21
197.98571
 31
0.0
  0
LINE
  5
101
100
AcDbEntity
  8
ADM
100
AcDbLine
 10
92.461569
 20
198.136912
 30
0.0
 11
92.461569
 21
198.136912
 31
0.0
  0
LINE
  5
102
100
AcDbEntity
  8
ADM
100
AcDbLine
 10
92.309553
 20
197.454876
 30
0.0
 11
92.309553
 21
197.454876
 31
0.0
  0
LINE
  5
103
100
AcDbEntity
  8
ADM
100
AcDbLine
 10
92.157537
 20
196.772841
 30
0.0
 11
92.157537
 21
196.772841
 31
0.0
  0
LINE
  5
104
100
AcDbEntity
  8
ADM
100
AcDbLine
 10
92.005521
 20
196.090805
 30
0.0
 11
92.005521
 21
196.090805
 31
0.0
  0
LINE
  5
105
100
AcDbEntity
  8
ADM
100
AcDbLine
 10
92.611955
 20
196.242007
 30
0.0
 11
92.611955
 21
196.242007
 31
0.0
  0
LINE
  5
106
100
AcDbEntity
  8
ADM
100
AcDbLine
 10
91.853504
 20
195.40877
 30
0.0
 11
91.853504
 21
195.40877
 31
0.0
  0
LINE
  5
107
100
AcDbEntity
  8
ADM
100
AcDbLine
 10
92.459939
 20
195.559971
 30
0.0
 11
92.459939
 21
195.559971
 31
0.0
  0
LINE
  5
108
100
AcDbEntity
  8
ADM
100
AcDbLine
 10
92.307923
 20
194.877936
 30
0.0
 11
92.307923
 21
194.877936
 31
0.0
  0
LINE
  5
109
100
AcDbEntity
  8
ADM
100
AcDbLine
 10
92.155907
 20
194.1959
 30
0.0
 11
92.155907
 21
194.1959
 31
0.0
  0
LINE
  5
10A
100
AcDbEntity
  8
ADM
100
AcDbLine
 10
92.003891
 20
193.513865
 30
0.0
 11
92.003891
 21
193.513865
 31
0.0
  0
LINE
  5
10B
100
AcDbEntity
  8
ADM
100
AcDbLine
 10
92.610325
 20
193.665066
 30
0.0
 11
92.610325
 21
193.665066
 31
0.0
  0
LINE
  5
10C
100
AcDbEntity
  8
ADM
100
AcDbLine
 10
91.851874
 20
192.831829
 30
0.0
 11
91.851874
 21
192.831829
 31
0.0
  0
LINE
  5
10D
100
AcDbEntity
  8
ADM
100
AcDbLine
 10
92.458309
 20
192.983031
 30
0.0
 11
92.458309
 21
192.983031
 31
0.0
  0
LINE
  5
10E
100
AcDbEntity
  8
ADM
100
AcDbLine
 10
92.306293
 20
192.300995
 30
0.0
 11
92.306293
 21
192.300995
 31
0.0
  0
LINE
  5
10F
100
AcDbEntity
  8
ADM
100
AcDbLine
 10
92.154277
 20
191.61896
 30
0.0
 11
92.154277
 21
191.61896
 31
0.0
  0
LINE
  5
110
100
AcDbEntity
  8
ADM
100
AcDbLine
 10
92.00226
 20
190.936924
 30
0.0
 11
92.00226
 21
190.936924
 31
0.0
  0
LINE
  5
111
100
AcDbEntity
  8
ADM
100
AcDbLine
 10
92.608695
 20
191.088126
 30
0.0
 11
92.608695
 21
191.088126
 31
0.0
  0
LINE
  5
112
100
AcDbEntity
  8
ADM
100
AcDbLine
 10
91.850244
 20
190.254889
 30
0.0
 11
91.850244
 21
190.254889
 31
0.0
  0
LINE
  5
113
100
AcDbEntity
  8
ADM
100
AcDbLine
 10
92.456679
 20
190.40609
 30
0.0
 11
92.456679
 21
190.40609
 31
0.0
  0
LINE
  5
114
100
AcDbEntity
  8
ADM
100
AcDbLine
 10
92.304663
 20
189.724055
 30
0.0
 11
92.304663
 21
189.724055
 31
0.0
  0
LINE
  5
115
100
AcDbEntity
  8
1AL
100
AcDbLine
 10
90.711203
 20
199.186097
 30
0.0
 11
91.711203
 21
199.186097
 31
0.0
  0
ARC
  5
116
100
AcDbEntity
  8
1AL
100
AcDbCircle
 10
89.211203
 20
199.402614
 30
0.0
 40
0.5
100
AcDbArc
 50
262.337744
 51
0.0
  0
ARC
  5
117
100
AcDbEntity
  8
1AL
100
AcDbCircle
 10
88.711203
 20
195.686097
 30
0.0
 40
3.25
100
AcDbArc
 50
82.337744
 51
133.313866
  0
ARC
  5
118
100
AcDbEntity
  8
1AL
100
AcDbCircle
 10
89.711203
 20
191.936097
 30
0.0
 40
0.5
100
AcDbArc
 50
0.0
 51
90.0
  0
ARC
  5
119
100
AcDbEntity
  8
1AL
100
AcDbCircle
 10
89.711203
 20
190.436097
 30
0.0
 40
0.5
100
AcDbArc
 50
270.0
 51
0.0
  0
LINE
  5
11A
100
AcDbEntity
  8
1AL
100
AcDbLine
 10
90.211203
 20
190.436097
 30
0.0
 11
90.211203
 21
191.936097
 31
0.0
  0
ARC
  5
11B
100
AcDbEntity
  8
1AL
  6
HIDDEN
100
AcDbCircle
 10
95.211203
 20
197.686097
 30
0.0
 40
0.5
100
AcDbArc
 50
90.0
 51
180.0
  0
ARC
  5
11C
100
AcDbEntity
  8
1AL
100
AcDbCircle
 10
93.711203
 20
202.186097
 30
0.0
 40
1.0
100
AcDbArc
 50
270.0
 51
0.0
  0
LINE
  5
11D
100
AcDbEntity
  8
1AL
100
AcDbLine
 10
91.711203
 20
205.436097
 30
0.0
 11
90.711203
 21
205.436097
 31
0.0
  0
LINE
  5
11E
100
AcDbEntity
  8
1AL
100
AcDbLine
 10
91.711203
 20
201.186097
 30
0.0
 11
92.711203
 21
201.186097
 31
0.0
  0
LINE
  5
11F
100
AcDbEntity
  8
1AL
100
AcDbLine
 10
91.711203
 20
202.686097
 30
0.0
 11
92.711203
 21
202.686097
 31
0.0
  0
LINE
  5
120
100
AcDbEntity
  8
1AL
100
AcDbLine
 10
91.711203
 20
202.686097
 30
0.0
 11
91.711203
 21
201.186097
 31
0.0
  0
LINE
  5
121
100
AcDbEntity
  8
1AL
100
AcDbLine
 10
91.711203
 20
202.286097
 30
0.0
 11
93.211203
 21
202.286097
 31
0.0
  0
LINE
  5
122
100
AcDbEntity
  8
1AL
100
AcDbLine
 10
91.711203
 20
201.186097
 30
0.0
 11
93.711203
 21
201.186097
 31
0.0
  0
LINE
  5
123
100
AcDbEntity
  8
1AL
100
AcDbLine
 10
91.711203
 20
202.286097
 30
0.0
 11
91.711203
 21
201.186097
 31
0.0
  0
ARC
  5
124
100
AcDbEntity
  8
1AL
100
AcDbCircle
 10
93.211203
 20
202.786097
 30
0.0
 40
0.5
100
AcDbArc
 50
270.0
 51
0.0
  0
LINE
  5
125
100
AcDbEntity
  8
ADM
100
AcDbLine
 10
91.711269
 20
210.188377
 30
0.0
 11
91.711269
 21
210.188377
 31
0.0
  0
LINE
  5
126
100
AcDbEntity
  8
ADM
100
AcDbLine
 10
92.317704
 20
210.339579
 30
0.0
 11
92.317704
 21
210.339579
 31
0.0
  0
LINE
  5
127
100
AcDbEntity
  8
ADM
100
AcDbLine
 10
92.165687
 20
209.657543
 30
0.0
 11
92.165687
 21
209.657543
 31
0.0
  0
LINE
  5
128
100
AcDbEntity
  8
ADM
100
AcDbLine
 10
92.013671
 20
208.975508
 30
0.0
 11
92.013671
 21
208.975508
 31
0.0
  0
LINE
  5
129
100
AcDbEntity
  8
ADM
100
AcDbLine
 10
92.620106
 20
209.126709
 30
0.0
 11
92.620106
 21
209.126709
 31
0.0
  0
LINE
  5
12A
100
AcDbEntity
  8
ADM
100
AcDbLine
 10
91.861655
 20
208.293472
 30
0.0
 11
91.861655
 21
208.293472
 31
0.0
  0
LINE
  5
12B
100
AcDbEntity
  8
ADM
100
AcDbLine
 10
92.46809
 20
208.444674
 30
0.0
 11
92.46809
 21
208.444674
 31
0.0
  0
LINE
  5
12C
100
AcDbEntity
  8
ADM
100
AcDbLine
 10
92.316073
 20
207.762638
 30
0.0
 11
92.316073
 21
207.762638
 31
0.0
  0
LINE
  5
12D
100
AcDbEntity
  8
ADM
100
AcDbLine
 10
92.164057
 20
207.080603
 30
0.0
 11
92.164057
 21
207.080603
 31
0.0
  0
LINE
  5
12E
100
AcDbEntity
  8
ADM
100
AcDbLine
 10
92.012041
 20
206.398567
 30
0.0
 11
92.012041
 21
206.398567
 31
0.0
  0
LINE
  5
12F
100
AcDbEntity
  8
ADM
100
AcDbLine
 10
92.618476
 20
206.549769
 30
0.0
 11
92.618476
 21
206.549769
 31
0.0
  0
LINE
  5
130
100
AcDbEntity
  8
ADM
100
AcDbLine
 10
91.860025
 20
205.716532
 30
0.0
 11
91.860025
 21
205.716532
 31
0.0
  0
LINE
  5
131
100
AcDbEntity
  8
ADM
100
AcDbLine
 10
92.46646
 20
205.867733
 30
0.0
 11
92.46646
 21
205.867733
 31
0.0
  0
LINE
  5
132
100
AcDbEntity
  8
ADM
100
AcDbLine
 10
91.101574
 20
204.883295
 30
0.0
 11
91.101574
 21
204.883295
 31
0.0
  0
LINE
  5
133
100
AcDbEntity
  8
ADM
100
AcDbLine
 10
91.708009
 20
205.034496
 30
0.0
 11
91.708009
 21
205.034496
 31
0.0
  0
LINE
  5
134
100
AcDbEntity
  8
ADM
100
AcDbLine
 10
92.314443
 20
205.185698
 30
0.0
 11
92.314443
 21
205.185698
 31
0.0
  0
LINE
  5
135
100
AcDbEntity
  8
ADM
100
AcDbLine
 10
90.949557
 20
204.20126
 30
0.0
 11
90.949557
 21
204.20126
 31
0.0
  0
LINE
  5
136
100
AcDbEntity
  8
ADM
100
AcDbLine
 10
91.555992
 20
204.352461
 30
0.0
 11
91.555992
 21
204.352461
 31
0.0
  0
LINE
  5
137
100
AcDbEntity
  8
ADM
100
AcDbLine
 10
92.162427
 20
204.503662
 30
0.0
 11
92.162427
 21
204.503662
 31
0.0
  0
LINE
  5
138
100
AcDbEntity
  8
ADM
100
AcDbLine
 10
90.797541
 20
203.519224
 30
0.0
 11
90.797541
 21
203.519224
 31
0.0
  0
LINE
  5
139
100
AcDbEntity
  8
ADM
100
AcDbLine
 10
91.403976
 20
203.670426
 30
0.0
 11
91.403976
 21
203.670426
 31
0.0
  0
LINE
  5
13A
100
AcDbEntity
  8
ADM
100
AcDbLine
 10
92.010411
 20
203.821627
 30
0.0
 11
92.010411
 21
203.821627
 31
0.0
  0
LINE
  5
13B
100
AcDbEntity
  8
ADM
100
AcDbLine
 10
92.616846
 20
203.972828
 30
0.0
 11
92.616846
 21
203.972828
 31
0.0
  0
LINE
  5
13C
100
AcDbEntity
  8
ADM
100
AcDbLine
 10
91.25196
 20
202.98839
 30
0.0
 11
91.25196
 21
202.98839
 31
0.0
  0
LINE
  5
13D
100
AcDbEntity
  8
ADM
100
AcDbLine
 10
91.858395
 20
203.139591
 30
0.0
 11
91.858395
 21
203.139591
 31
0.0
  0
LINE
  5
13E
100
AcDbEntity
  8
ADM
100
AcDbLine
 10
92.464829
 20
203.290793
 30
0.0
 11
92.464829
 21
203.290793
 31
0.0
  0
LINE
  5
13F
100
AcDbEntity
  8
ADM
100
AcDbLine
 10
91.099944
 20
202.306355
 30
0.0
 11
91.099944
 21
202.306355
 31
0.0
  0
LINE
  5
140
100
AcDbEntity
  8
ADM
100
AcDbLine
 10
91.706378
 20
202.457556
 30
0.0
 11
91.706378
 21
202.457556
 31
0.0
  0
LINE
  5
141
100
AcDbEntity
  8
ADM
100
AcDbLine
 10
90.947927
 20
201.624319
 30
0.0
 11
90.947927
 21
201.624319
 31
0.0
  0
LINE
  5
142
100
AcDbEntity
  8
ADM
100
AcDbLine
 10
91.554362
 20
201.775521
 30
0.0
 11
91.554362
 21
201.775521
 31
0.0
  0
LINE
  5
143
100
AcDbEntity
  8
ADM
100
AcDbLine
 10
90.795911
 20
200.942284
 30
0.0
 11
90.795911
 21
200.942284
 31
0.0
  0
LINE
  5
144
100
AcDbEntity
  8
ADM
100
AcDbLine
 10
91.402346
 20
201.093485
 30
0.0
 11
91.402346
 21
201.093485
 31
0.0
  0
LINE
  5
145
100
AcDbEntity
  8
ADM
100
AcDbLine
 10
91.25033
 20
200.41145
 30
0.0
 11
91.25033
 21
200.41145
 31
0.0
  0
LINE
  5
146
100
AcDbEntity
  8
ADM
100
AcDbLine
 10
91.856765
 20
200.562651
 30
0.0
 11
91.856765
 21
200.562651
 31
0.0
  0
LINE
  5
147
100
AcDbEntity
  8
ADM
100
AcDbLine
 10
92.463199
 20
200.713852
 30
0.0
 11
92.463199
 21
200.713852
 31
0.0
  0
LINE
  5
148
100
AcDbEntity
  8
ADM
100
AcDbLine
 10
91.704748
 20
199.880615
 30
0.0
 11
91.704748
 21
199.880615
 31
0.0
  0
LINE
  5
149
100
AcDbEntity
  8
ADM
100
AcDbLine
 10
92.311183
 20
200.031817
 30
0.0
 11
92.311183
 21
200.031817
 31
0.0
  0
ARC
  5
14A
100
AcDbEntity
  8
1AL
100
AcDbCircle
 10
89.711203
 20
208.936097
 30
0.0
 40
0.5
100
AcDbArc
 50
0.0
 51
90.0
  0
ARC
  5
14B
100
AcDbEntity
  8
1AL
100
AcDbCircle
 10
89.711203
 20
207.436097
 30
0.0
 40
0.5
100
AcDbArc
 50
270.0
 51
0.0
  0
LINE
  5
14C
100
AcDbEntity
  8
1AL
100
AcDbLine
 10
90.711203
 20
205.686097
 30
0.0
 11
91.711203
 21
205.686097
 31
0.0
  0
LINE
  5
14D
100
AcDbEntity
  8
1AL
100
AcDbLine
 10
90.211203
 20
207.436097
 30
0.0
 11
90.211203
 21
208.936097
 31
0.0
  0
LINE
  5
14E
100
AcDbEntity
  8
ALS
100
AcDbLine
 10
93.711203
 20
205.186097
 30
0.0
 11
93.211203
 21
205.186097
 31
0.0
  0
LINE
  5
14F
100
AcDbEntity
  8
ALS
100
AcDbLine
 10
93.211203
 20
205.186097
 30
0.0
 11
93.211203
 21
202.286097
 31
0.0
  0
LINE
  5
150
100
AcDbEntity
  8
1AL
  6
HIDDEN
100
AcDbLine
 10
97.711203
 20
203.186097
 30
0.0
 11
97.711203
 21
204.579693
 31
0.0
  0
LINE
  5
151
100
AcDbEntity
  8
1AL
  6
HIDDEN
100
AcDbLine
 10
106.711203
 20
203.798592
 30
0.0
 11
106.711203
 21
199.186097
 31
0.0
  0
LINE
  5
152
100
AcDbEntity
  8
1AL
  6
HIDDEN
100
AcDbLine
 10
105.711203
 20
199.686097
 30
0.0
 11
105.711203
 21
202.686097
 31
0.0
  0
ARC
  5
153
100
AcDbEntity
  8
1AL
  6
HIDDEN
100
AcDbCircle
 10
105.711203
 20
199.186097
 30
0.0
 40
1.0
100
AcDbArc
 50
270.0
 51
0.0
  0
ARC
  5
154
100
AcDbEntity
  8
1AL
  6
HIDDEN
100
AcDbCircle
 10
105.211203
 20
199.686097
 30
0.0
 40
0.5
100
AcDbArc
 50
270.0
 51
0.0
  0
ARC
  5
155
100
AcDbEntity
  8
1AL
  6
HIDDEN
100
AcDbCircle
 10
105.711203
 20
203.798592
 30
0.0
 40
1.0
100
AcDbArc
 50
360.0
 51
77.364375
  0
ARC
  5
156
100
AcDbEntity
  8
1AL
  6
HIDDEN
100
AcDbCircle
 10
105.211203
 20
202.686097
 30
0.0
 40
0.5
100
AcDbArc
 50
0.0
 51
90.0
  0
LINE
  5
157
100
AcDbEntity
  8
1AL
  6
HIDDEN
100
AcDbLine
 10
107.611203
 20
206.286097
 30
0.0
 11
107.611203
 21
205.186097
 31
0.0
  0
LINE
  5
158
100
AcDbEntity
  8
1AL
100
AcDbLine
 10
105.211203
 20
219.186097
 30
0.0
 11
97.711203
 21
219.186097
 31
0.0
  0
ARC
  5
159
100
AcDbEntity
  8
1AL
100
AcDbCircle
 10
102.211203
 20
204.186097
 30
0.0
 40
17.0
100
AcDbArc
 50
77.364375
 51
105.349477
  0
LINE
  5
15A
100
AcDbEntity
  8
1AL
100
AcDbLine
 10
105.711203
 20
214.186097
 30
0.0
 11
95.211203
 21
214.186097
 31
0.0
  0
LINE
  5
15B
100
AcDbEntity
  8
1AL
100
AcDbLine
 10
105.211203
 20
215.186097
 30
0.0
 11
93.711203
 21
215.186097
 31
0.0
  0
LINE
  5
15C
100
AcDbEntity
  8
1AL
  6
HIDDEN
100
AcDbLine
 10
107.611203
 20
213.086097
 30
0.0
 11
100.711203
 21
213.086097
 31
0.0
  0
LINE
  5
15D
100
AcDbEntity
  8
1AL
  6
HIDDEN
100
AcDbLine
 10
99.611203
 20
214.186097
 30
0.0
 11
107.611203
 21
214.186097
 31
0.0
  0
LINE
  5
15E
100
AcDbEntity
  8
1AL
100
AcDbLine
 10
89.711203
 20
225.186097
 30
0.0
 11
106.711203
 21
225.186097
 31
0.0
  0
LINE
  5
15F
100
AcDbEntity
  8
1AL
100
AcDbLine
 10
90.711203
 20
224.186097
 30
0.0
 11
102.211203
 21
224.186097
 31
0.0
  0
LINE
  5
160
100
AcDbEntity
  8
1AL
100
AcDbLine
 10
90.711203
 20
220.186097
 30
0.0
 11
90.711203
 21
224.186097
 31
0.0
  0
LINE
  5
161
100
AcDbEntity
  8
1AL
100
AcDbLine
 10
89.711203
 20
220.186097
 30
0.0
 11
89.711203
 21
225.186097
 31
0.0
  0
LINE
  5
162
100
AcDbEntity
  8
ALS
100
AcDbLine
 10
88.711203
 20
225.186097
 30
0.0
 11
88.711203
 21
220.186097
 31
0.0
  0
LINE
  5
163
100
AcDbEntity
  8
1BUHIN
100
AcDbLine
 10
96.711203
 20
223.186097
 30
0.0
 11
96.711203
 21
221.186097
 31
0.0
  0
LINE
  5
164
100
AcDbEntity
  8
1AL
100
AcDbLine
 10
90.211203
 20
218.686097
 30
0.0
 11
91.211203
 21
218.686097
 31
0.0
  0
LINE
  5
165
100
AcDbEntity
  8
1AL
100
AcDbLine
 10
90.211203
 20
218.686097
 30
0.0
 11
90.211203
 21
216.186097
 31
0.0
  0
LINE
  5
166
100
AcDbEntity
  8
1AL
100
AcDbLine
 10
91.711203
 20
217.186097
 30
0.0
 11
92.711203
 21
217.186097
 31
0.0
  0
LINE
  5
167
100
AcDbEntity
  8
1AL
100
AcDbLine
 10
91.711203
 20
218.186097
 30
0.0
 11
91.711203
 21
217.186097
 31
0.0
  0
ARC
  5
168
100
AcDbEntity
  8
1AL
100
AcDbCircle
 10
91.211203
 20
218.186097
 30
0.0
 40
0.5
100
AcDbArc
 50
0.0
 51
90.0
  0
LINE
  5
169
100
AcDbEntity
  8
1AL
100
AcDbLine
 10
90.211203
 20
216.186097
 30
0.0
 11
91.711203
 21
214.686097
 31
0.0
  0
ARC
  5
16A
100
AcDbEntity
  8
1AL
100
AcDbCircle
 10
93.711203
 20
214.486097
 30
0.0
 40
0.7
100
AcDbArc
 50
90.0
 51
270.0
  0
LINE
  5
16B
100
AcDbEntity
  8
ADM
100
AcDbLine
 10
90.655306
 20
218.298832
 30
0.0
 11
90.655306
 21
218.298832
 31
0.0
  0
LINE
  5
16C
100
AcDbEntity
  8
ADM
100
AcDbLine
 10
91.26174
 20
218.450033
 30
0.0
 11
91.26174
 21
218.450033
 31
0.0
  0
LINE
  5
16D
100
AcDbEntity
  8
ADM
100
AcDbLine
 10
90.503289
 20
217.616797
 30
0.0
 11
90.503289
 21
217.616797
 31
0.0
  0
LINE
  5
16E
100
AcDbEntity
  8
ADM
100
AcDbLine
 10
91.109724
 20
217.767998
 30
0.0
 11
91.109724
 21
217.767998
 31
0.0
  0
LINE
  5
16F
100
AcDbEntity
  8
ADM
100
AcDbLine
 10
90.351273
 20
216.934761
 30
0.0
 11
90.351273
 21
216.934761
 31
0.0
  0
LINE
  5
170
100
AcDbEntity
  8
ADM
100
AcDbLine
 10
90.957708
 20
217.085962
 30
0.0
 11
90.957708
 21
217.085962
 31
0.0
  0
LINE
  5
171
100
AcDbEntity
  8
ADM
100
AcDbLine
 10
91.564143
 20
217.237164
 30
0.0
 11
91.564143
 21
217.237164
 31
0.0
  0
LINE
  5
172
100
AcDbEntity
  8
ADM
100
AcDbLine
 10
90.805692
 20
216.403927
 30
0.0
 11
90.805692
 21
216.403927
 31
0.0
  0
LINE
  5
173
100
AcDbEntity
  8
ADM
100
AcDbLine
 10
91.412127
 20
216.555128
 30
0.0
 11
91.412127
 21
216.555128
 31
0.0
  0
LINE
  5
174
100
AcDbEntity
  8
ADM
100
AcDbLine
 10
92.018561
 20
216.706329
 30
0.0
 11
92.018561
 21
216.706329
 31
0.0
  0
LINE
  5
175
100
AcDbEntity
  8
ADM
100
AcDbLine
 10
92.624996
 20
216.857531
 30
0.0
 11
92.624996
 21
216.857531
 31
0.0
  0
LINE
  5
176
100
AcDbEntity
  8
ADM
100
AcDbLine
 10
91.26011
 20
215.873093
 30
0.0
 11
91.26011
 21
215.873093
 31
0.0
  0
LINE
  5
177
100
AcDbEntity
  8
ADM
100
AcDbLine
 10
91.866545
 20
216.024294
 30
0.0
 11
91.866545
 21
216.024294
 31
0.0
  0
LINE
  5
178
100
AcDbEntity
  8
ADM
100
AcDbLine
 10
92.47298
 20
216.175495
 30
0.0
 11
92.47298
 21
216.175495
 31
0.0
  0
LINE
  5
179
100
AcDbEntity
  8
ADM
100
AcDbLine
 10
91.714529
 20
215.342258
 30
0.0
 11
91.714529
 21
215.342258
 31
0.0
  0
LINE
  5
17A
100
AcDbEntity
  8
ADM
100
AcDbLine
 10
92.320964
 20
215.49346
 30
0.0
 11
92.320964
 21
215.49346
 31
0.0
  0
LINE
  5
17B
100
AcDbEntity
  8
ADM
100
AcDbLine
 10
92.168947
 20
214.811424
 30
0.0
 11
92.168947
 21
214.811424
 31
0.0
  0
LINE
  5
17C
100
AcDbEntity
  8
ADM
100
AcDbLine
 10
92.016931
 20
214.129389
 30
0.0
 11
92.016931
 21
214.129389
 31
0.0
  0
LINE
  5
17D
100
AcDbEntity
  8
ADM
100
AcDbLine
 10
92.623366
 20
214.28059
 30
0.0
 11
92.623366
 21
214.28059
 31
0.0
  0
LINE
  5
17E
100
AcDbEntity
  8
ADM
100
AcDbLine
 10
91.864915
 20
213.447353
 30
0.0
 11
91.864915
 21
213.447353
 31
0.0
  0
LINE
  5
17F
100
AcDbEntity
  8
ADM
100
AcDbLine
 10
92.47135
 20
213.598555
 30
0.0
 11
92.47135
 21
213.598555
 31
0.0
  0
LINE
  5
180
100
AcDbEntity
  8
ADM
100
AcDbLine
 10
91.712899
 20
212.765318
 30
0.0
 11
91.712899
 21
212.765318
 31
0.0
  0
LINE
  5
181
100
AcDbEntity
  8
ADM
100
AcDbLine
 10
92.319334
 20
212.916519
 30
0.0
 11
92.319334
 21
212.916519
 31
0.0
  0
LINE
  5
182
100
AcDbEntity
  8
ADM
100
AcDbLine
 10
92.167317
 20
212.234484
 30
0.0
 11
92.167317
 21
212.234484
 31
0.0
  0
LINE
  5
183
100
AcDbEntity
  8
ADM
100
AcDbLine
 10
92.015301
 20
211.552448
 30
0.0
 11
92.015301
 21
211.552448
 31
0.0
  0
LINE
  5
184
100
AcDbEntity
  8
ADM
100
AcDbLine
 10
92.621736
 20
211.70365
 30
0.0
 11
92.621736
 21
211.70365
 31
0.0
  0
LINE
  5
185
100
AcDbEntity
  8
ADM
100
AcDbLine
 10
91.863285
 20
210.870413
 30
0.0
 11
91.863285
 21
210.870413
 31
0.0
  0
LINE
  5
186
100
AcDbEntity
  8
ADM
100
AcDbLine
 10
92.46972
 20
211.021614
 30
0.0
 11
92.46972
 21
211.021614
 31
0.0
  0
LINE
  5
187
100
AcDbEntity
  8
1AL
100
AcDbLine
 10
90.711203
 20
220.186097
 30
0.0
 11
92.711203
 21
220.186097
 31
0.0
  0
LINE
  5
188
100
AcDbEntity
  8
1AL
100
AcDbLine
 10
92.411203
 20
217.186097
 30
0.0
 11
92.711203
 21
217.186097
 31
0.0
  0
LINE
  5
189
100
AcDbEntity
  8
1AL
100
AcDbLine
 10
91.711203
 20
217.886097
 30
0.0
 11
91.711203
 21
218.686097
 31
0.0
  0
LINE
  5
18A
100
AcDbEntity
  8
1AL
100
AcDbLine
 10
90.711203
 20
218.686097
 30
0.0
 11
91.711203
 21
218.686097
 31
0.0
  0
ARC
  5
18B
100
AcDbEntity
  8
1AL
100
AcDbCircle
 10
92.411203
 20
217.886097
 30
0.0
 40
0.7
100
AcDbArc
 50
180.0
 51
270.0
  0
ARC
  5
18C
100
AcDbEntity
  8
1AL
100
AcDbCircle
 10
89.211203
 20
216.402614
 30
0.0
 40
0.5
100
AcDbArc
 50
262.337744
 51
0.0
  0
LINE
  5
18D
100
AcDbEntity
  8
1AL
100
AcDbLine
 10
90.711203
 20
216.186097
 30
0.0
 11
90.711203
 21
218.686097
 31
0.0
  0
LINE
  5
18E
100
AcDbEntity
  8
1AL
100
AcDbLine
 10
89.711203
 20
216.402614
 30
0.0
 11
89.711203
 21
219.186097
 31
0.0
  0
LINE
  5
18F
100
AcDbEntity
  8
1AL
100
AcDbLine
 10
90.711203
 20
216.186097
 30
0.0
 11
91.711203
 21
215.186097
 31
0.0
  0
ARC
  5
190
100
AcDbEntity
  8
1AL
100
AcDbCircle
 10
88.711203
 20
212.686097
 30
0.0
 40
3.25
100
AcDbArc
 50
82.337744
 51
133.313866
  0
LINE
  5
191
100
AcDbEntity
  8
1AL
100
AcDbLine
 10
92.711203
 20
217.186097
 30
0.0
 11
92.711203
 21
220.186097
 31
0.0
  0
ARC
  5
192
100
AcDbEntity
  8
1AL
100
AcDbCircle
 10
95.211203
 20
213.686097
 30
0.0
 40
0.5
100
AcDbArc
 50
90.0
 51
180.0
  0
LINE
  5
193
100
AcDbEntity
  8
1AL
100
AcDbLine
 10
97.711203
 20
219.186097
 30
0.0
 11
97.711203
 21
220.579693
 31
0.0
  0
ARC
  5
194
100
AcDbEntity
  8
1AL
100
AcDbCircle
 10
105.711203
 20
219.798592
 30
0.0
 40
1.0
100
AcDbArc
 50
0.0
 51
77.364375
  0
LINE
  5
195
100
AcDbEntity
  8
1AL
100
AcDbLine
 10
105.711203
 20
215.686097
 30
0.0
 11
105.711203
 21
218.686097
 31
0.0
  0
ARC
  5
196
100
AcDbEntity
  8
1AL
100
AcDbCircle
 10
105.211203
 20
218.686097
 30
0.0
 40
0.5
100
AcDbArc
 50
0.0
 51
90.0
  0
ARC
  5
197
100
AcDbEntity
  8
1AL
100
AcDbCircle
 10
105.211203
 20
215.686097
 30
0.0
 40
0.5
100
AcDbArc
 50
270.0
 51
0.0
  0
ARC
  5
198
100
AcDbEntity
  8
1AL
100
AcDbCircle
 10
105.711203
 20
215.186097
 30
0.0
 40
1.0
100
AcDbArc
 50
270.0
 51
0.0
  0
LINE
  5
199
100
AcDbEntity
  8
1AL
100
AcDbLine
 10
106.711203
 20
215.186097
 30
0.0
 11
106.711203
 21
219.798592
 31
0.0
  0
LINE
  5
19A
100
AcDbEntity
  8
1AL
  6
HIDDEN
100
AcDbLine
 10
107.611203
 20
214.186097
 30
0.0
 11
107.611203
 21
213.086097
 31
0.0
  0
POINT
  5
19B
100
AcDbEntity
  8
DEFPOINTS
 62
     0
100
AcDbPoint
 10
106.711203
 20
225.186097
 30
0.0
  0
LINE
  5
19C
100
AcDbEntity
  8
1AL
100
AcDbLine
 10
102.211203
 20
223.686097
 30
0.0
 11
102.211203
 21
224.186097
 31
0.0
  0
LINE
  5
19D
100
AcDbEntity
  8
1AL
100
AcDbLine
 10
103.211203
 20
223.686097
 30
0.0
 11
103.211203
 21
224.186097
 31
0.0
  0
ARC
  5
19E
100
AcDbEntity
  8
1AL
100
AcDbCircle
 10
102.711203
 20
223.686097
 30
0.0
 40
0.5
100
AcDbArc
 50
180.0
 51
0.0
  0
LINE
  5
19F
100
AcDbEntity
  8
1AL
100
AcDbLine
 10
106.711203
 20
223.686097
 30
0.0
 11
106.711203
 21
225.186097
 31
0.0
  0
LINE
  5
1A0
100
AcDbEntity
  8
1AL
100
AcDbLine
 10
105.711203
 20
223.686097
 30
0.0
 11
105.711203
 21
224.186097
 31
0.0
  0
ARC
  5
1A1
100
AcDbEntity
  8
1AL
100
AcDbCircle
 10
106.211203
 20
223.686097
 30
0.0
 40
0.5
100
AcDbArc
 50
180.0
 51
0.0
  0
LINE
  5
1A2
100
AcDbEntity
  8
1AL
100
AcDbLine
 10
103.211203
 20
224.186097
 30
0.0
 11
105.711203
 21
224.186097
 31
0.0
  0
ARC
  5
1A3
100
AcDbEntity
  8
AHJ
  6
BYBLOCK
 62
     0
100
AcDbCircle
 10
106.711203
 20
245.94185
 30
0.0
 40
0.5
100
AcDbArc
 50
180.0
 51
0.0
  0
ARC
  5
1A4
100
AcDbEntity
  8
AHJ
  6
BYBLOCK
 62
     0
100
AcDbCircle
 10
106.711203
 20
245.94185
 30
0.0
 40
0.5
100
AcDbArc
 50
0.0
 51
180.0
  0
LINE
  5
1A5
100
AcDbEntity
  8
AHJ
  6
BYBLOCK
 62
     0
100
AcDbLine
 10
107.711203
 20
245.94185
 30
0.0
 11
108.711203
 21
245.94185
 31
0.0
  0
TEXT
  5
1A6
100
AcDbEntity
  8
0
 62
     0
100
AcDbText
 10
117.142306
 20
247.94185
 30
0.0
 40
6.0
  1
W-48
100
AcDbText
1001
ACAD
1000
MTEXTBEGIN
1070
    73
1070
     1
1070
    44
1040
1.0
1070
    74
1070
     0
1000
MTEXTEND
  0
LINE
  5
1A7
100
AcDbEntity
  8
ADM
 62
     0
100
AcDbLine
 10
313.792759
 20
124.186097
 30
0.0
 11
313.792759
 21
87.290066
 31
0.0
1001
ACAD
1000
RTLwPs
1070
   158
  0
LINE
  5
1A8
100
AcDbEntity
  8
ADM
 62
     0
100
AcDbLine
 10
217.001981
 20
124.186097
 30
0.0
 11
217.001981
 21
87.290066
 31
0.0
1001
ACAD
1000
RTLwPs
1070
   158
  0
LINE
  5
1A9
100
AcDbEntity
  8
ADM
 62
     0
100
AcDbLine
 10
177.001981
 20
124.186097
 30
0.0
 11
177.001981
 21
87.290066
 31
0.0
1001
ACAD
1000
RTLwPs
1070
   158
  0
LINE
  5
1AA
100
AcDbEntity
  8
WAKU
 62
     1
100
AcDbLine
 10
232.0
 20
24.0
 30
0.0
 11
292.0
 21
24.0
 31
0.0
  0
LINE
  5
1AB
100
AcDbEntity
  8
ADM
 62
     0
100
AcDbLine
 10
219.001981
 20
89.690066
 30
0.0
 11
311.792759
 21
89.690066
 31
0.0
1001
ACAD
1000
RTLwPs
1070
   158
  0
LINE
  5
1AC
100
AcDbEntity
  8
WAKU
 62
     3
100
AcDbLine
 10
232.0
 20
0.0
 30
0.0
 11
232.0
 21
32.0
 31
0.0
  0
TEXT
  5
1AD
100
AcDbEntity
  8
ATX
100
AcDbText
 10
158.517234
 20
56.781752
 30
0.0
 40
8.0
  1
%%U　横断面図　
100
AcDbText
  0
ARC
  5
1AF
100
AcDbEntity
  8
AHJ
  6
BYBLOCK
 62
     0
100
AcDbCircle
 10
177.001981
 20
89.690066
 30
0.0
 40
0.5
100
AcDbArc
 50
0.0
 51
180.0
  0
ARC
  5
1B0
100
AcDbEntity
  8
AHJ
  6
BYBLOCK
 62
     0
100
AcDbCircle
 10
177.001981
 20
89.690066
 30
0.0
 40
0.5
100
AcDbArc
 50
180.0
 51
0.0
  0
LINE
  5
1B1
100
AcDbEntity
  8
AHJ
  6
BYBLOCK
 62
     0
100
AcDbLine
 10
176.001981
 20
89.690066
 30
0.0
 11
175.001981
 21
89.690066
 31
0.0
  0
TEXT
  5
1B2
100
AcDbEntity
  8
ALS
100
AcDbText
 10
235.228585
 20
25.611977
 30
0.0
 40
3.5
  1
受　領
 72
     1
 11
241.061918
 21
25.611977
 31
0.0
100
AcDbText
  0
TEXT
  5
1B3
100
AcDbEntity
  8
ALS
100
AcDbText
 10
256.751574
 20
25.611977
 30
0.0
 40
3.5
  1
年
 72
     1
 11
258.384908
 21
25.611977
 31
0.0
100
AcDbText
  0
TEXT
  5
1B4
100
AcDbEntity
  8
ALS
100
AcDbText
 10
268.55533
 20
25.611977
 30
0.0
 40
3.5
  1
月
 72
     1
 11
269.95533
 21
25.611977
 31
0.0
100
AcDbText
  0
ARC
  5
1B5
100
AcDbEntity
  8
AHJ
  6
BYBLOCK
 62
     0
100
AcDbCircle
 10
217.001981
 20
89.690066
 30
0.0
 40
0.5
100
AcDbArc
 50
180.0
 51
0.0
  0
ARC
  5
1B6
100
AcDbEntity
  8
AHJ
  6
BYBLOCK
 62
     0
100
AcDbCircle
 10
217.001981
 20
89.690066
 30
0.0
 40
0.5
100
AcDbArc
 50
0.0
 51
180.0
  0
LINE
  5
1B7
100
AcDbEntity
  8
AHJ
  6
BYBLOCK
 62
     0
100
AcDbLine
 10
218.001981
 20
89.690066
 30
0.0
 11
219.001981
 21
89.690066
 31
0.0
  0
TEXT
  5
1B8
100
AcDbEntity
  8
0
 62
     0
100
AcDbText
 10
261.968798
 20
91.690066
 30
0.0
 40
6.0
  1
W
100
AcDbText
1001
ACAD
1000
MTEXTBEGIN
1070
    73
1070
     1
1070
    44
1040
1.0
1070
    74
1070
     0
1000
MTEXTEND
  0
LINE
  5
1B9
100
AcDbEntity
  8
WAKU
 62
     3
100
AcDbLine
 10
292.0
 20
0.0
 30
0.0
 11
292.0
 21
32.0
 31
0.0
  0
TEXT
  5
1BA
100
AcDbEntity
  8
WAKU
 62
     3
100
AcDbText
 10
316.107185
 20
18.076895
 30
0.0
 40
5.28
  1
旭硝子株式会社
 72
     1
 11
337.579185
 21
18.076895
 31
0.0
100
AcDbText
  0
LINE
  5
1BB
100
AcDbEntity
  8
ALS
100
AcDbLine
 10
302.567201
 20
19.657203
 30
0.0
 11
302.16598
 21
17.769603
 31
0.0
  0
ARC
  5
1BC
100
AcDbEntity
  8
ALS
100
AcDbCircle
 10
303.649338
 20
18.970803
 30
0.0
 40
1.2012
100
AcDbArc
 50
168.0
 51
270.0
  0
LINE
  5
1BD
100
AcDbEntity
  8
ALS
100
AcDbLine
 10
301.40069
 20
19.657203
 30
0.0
 11
302.567201
 21
19.657203
 31
0.0
  0
LINE
  5
1BE
100
AcDbEntity
  8
ALS
 62
     0
100
AcDbLine
 10
300.882767
 20
17.769603
 30
0.0
 11
302.51236
 21
19.399195
 31
0.0
  0
TEXT
  5
1BF
100
AcDbEntity
  8
ALS
100
AcDbText
 10
280.309368
 20
25.611977
 30
0.0
 40
3.5
  1
日
 72
     1
 11
281.942701
 21
25.611977
 31
0.0
100
AcDbText
  0
ARC
  5
1C0
100
AcDbEntity
  8
ALS
100
AcDbCircle
 10
299.986811
 20
18.541803
 30
0.0
 40
0.7722
100
AcDbArc
 50
168.0
 51
270.0
  0
ARC
  5
1C1
100
AcDbEntity
  8
ALS
100
AcDbCircle
 10
301.40069
 20
19.828803
 30
0.0
 40
0.1716
100
AcDbArc
 50
168.0
 51
270.0
  0
ARC
  5
1C2
100
AcDbEntity
  8
ALS
100
AcDbCircle
 10
296.815478
 20
20.172003
 30
0.0
 40
0.5148
100
AcDbArc
 50
270.0
 51
328.5
  0
ARC
  5
1C3
100
AcDbEntity
  8
ALS
100
AcDbCircle
 10
296.797366
 20
19.485603
 30
0.0
 40
1.716
100
AcDbArc
 50
270.0
 51
328.5
  0
ARC
  5
1C4
100
AcDbEntity
  8
ALS
 62
     4
100
AcDbCircle
 10
300.378231
 20
21.716403
 30
0.0
 40
1.716
100
AcDbArc
 50
90.0
 51
148.5
  0
LINE
  5
1C5
100
AcDbEntity
  8
ALS
100
AcDbLine
 10
295.38778
 20
17.769603
 30
0.0
 11
296.797366
 21
17.769603
 31
0.0
  0
LINE
  5
1C6
100
AcDbEntity
  8
ALS
100
AcDbLine
 10
295.789001
 20
19.657203
 30
0.0
 11
296.815478
 21
19.657203
 31
0.0
  0
LINE
  5
1C7
100
AcDbEntity
  8
ALS
100
AcDbLine
 10
301.991225
 20
23.432403
 30
0.0
 11
300.378231
 21
23.432403
 31
0.0
  0
LINE
  5
1C8
100
AcDbEntity
  8
ALS
100
AcDbLine
 10
297.254417
 20
19.90302
 30
0.0
 11
298.915101
 21
22.61301
 31
0.0
  0
LINE
  5
1C9
100
AcDbEntity
  8
ALS
100
AcDbLine
 10
299.986811
 20
17.769603
 30
0.0
 11
302.16598
 21
17.769603
 31
0.0
  0
LINE
  5
1CA
100
AcDbEntity
  8
ALS
100
AcDbLine
 10
299.710255
 20
20.954786
 30
0.0
 11
299.231485
 21
18.702352
 31
0.0
  0
LINE
  5
1CB
100
AcDbEntity
  8
ALS
100
AcDbLine
 10
298.260496
 20
18.588995
 30
0.0
 11
299.710255
 21
20.954786
 31
0.0
  0
LINE
  5
1CC
100
AcDbEntity
  8
ALS
100
AcDbLine
 10
301.991225
 20
23.432403
 30
0.0
 11
301.23284
 21
19.86448
 31
0.0
  0
LINE
  5
1CD
100
AcDbEntity
  8
ALS
100
AcDbLine
 10
295.38778
 20
17.769603
 30
0.0
 11
295.789001
 21
19.657203
 31
0.0
  0
LINE
  5
1CE
100
AcDbEntity
  8
ALS
 62
     0
100
AcDbLine
 10
301.466131
 20
17.769603
 30
0.0
 11
302.354892
 21
18.658364
 31
0.0
  0
LINE
  5
1CF
100
AcDbEntity
  8
ALS
 62
     0
100
AcDbLine
 10
300.299404
 20
17.769603
 30
0.0
 11
302.187004
 21
19.657203
 31
0.0
  0
LINE
  5
1D0
100
AcDbEntity
  8
ALS
 62
     0
100
AcDbLine
 10
299.752461
 20
17.806022
 30
0.0
 11
301.603641
 21
19.657203
 31
0.0
  0
LINE
  5
1D1
100
AcDbEntity
  8
ALS
 62
     0
100
AcDbLine
 10
299.401356
 20
18.03828
 30
0.0
 11
301.234266
 21
19.871191
 31
0.0
  0
LINE
  5
1D2
100
AcDbEntity
  8
ALS
 62
     0
100
AcDbLine
 10
299.22116
 20
18.441447
 30
0.0
 11
301.391735
 21
20.612022
 31
0.0
  0
LINE
  5
1D3
100
AcDbEntity
  8
ALS
 62
     0
100
AcDbLine
 10
299.321315
 20
19.124965
 30
0.0
 11
301.549204
 21
21.352854
 31
0.0
  0
LINE
  5
1D4
100
AcDbEntity
  8
ALS
 62
     0
100
AcDbLine
 10
297.562723
 20
17.949736
 30
0.0
 11
298.353105
 21
18.740119
 31
0.0
  0
LINE
  5
1D5
100
AcDbEntity
  8
ALS
 62
     0
100
AcDbLine
 10
299.478783
 20
19.865797
 30
0.0
 11
301.706672
 21
22.093686
 31
0.0
  0
LINE
  5
1D6
100
AcDbEntity
  8
ALS
 62
     0
100
AcDbLine
 10
296.799227
 20
17.769604
 30
0.0
 11
299.276365
 21
20.246741
 31
0.0
  0
LINE
  5
1D7
100
AcDbEntity
  8
ALS
 62
     0
100
AcDbLine
 10
299.636252
 20
20.606629
 30
0.0
 11
301.864141
 21
22.834518
 31
0.0
  0
LINE
  5
1D8
100
AcDbEntity
  8
ALS
 62
     0
100
AcDbLine
 10
296.215863
 20
17.769603
 30
0.0
 11
301.878663
 21
23.432403
 31
0.0
  0
LINE
  5
1D9
100
AcDbEntity
  8
ALS
 62
     0
100
AcDbLine
 10
295.6325
 20
17.769603
 30
0.0
 11
301.2953
 21
23.432403
 31
0.0
  0
LINE
  5
1DA
100
AcDbEntity
  8
ALS
 62
     0
100
AcDbLine
 10
295.47919
 20
18.199656
 30
0.0
 11
296.9564
 21
19.676866
 31
0.0
  0
LINE
  5
1DB
100
AcDbEntity
  8
ALS
 62
     0
100
AcDbLine
 10
297.36815
 20
20.088617
 30
0.0
 11
300.711937
 21
23.432403
 31
0.0
  0
LINE
  5
1DC
100
AcDbEntity
  8
ALS
 62
     0
100
AcDbLine
 10
295.636659
 20
18.940488
 30
0.0
 11
296.353373
 21
19.657203
 31
0.0
  0
LINE
  5
1DD
100
AcDbEntity
  8
ALS
 62
     4
100
AcDbLine
 10
298.29141
 20
21.595239
 30
0.0
 11
300.107003
 21
23.410832
 31
0.0
  0
LINE
  5
1DE
100
AcDbEntity
  8
ALS
 62
     0
100
AcDbLine
 10
302.049494
 20
17.769603
 30
0.0
 11
302.197423
 21
17.917532
 31
0.0
  0
ARC
  5
1DF
100
AcDbEntity
  8
ALS
100
AcDbCircle
 10
310.28767
 20
19.828803
 30
0.0
 40
0.1716
100
AcDbArc
 50
168.0
 51
270.0
  0
ARC
  5
1E0
100
AcDbEntity
  8
ALS
100
AcDbCircle
 10
310.338024
 20
21.716403
 30
0.0
 40
1.716
100
AcDbArc
 50
90.0
 51
168.0
  0
LINE
  5
1E1
100
AcDbEntity
  8
ALS
100
AcDbLine
 10
309.228128
 20
17.769603
 30
0.0
 11
312.656912
 21
17.769603
 31
0.0
  0
LINE
  5
1E2
100
AcDbEntity
  8
ALS
100
AcDbLine
 10
310.11982
 20
19.86448
 30
0.0
 11
310.448092
 21
21.40888
 31
0.0
  0
LINE
  5
1E3
100
AcDbEntity
  8
ALS
 62
     0
100
AcDbLine
 10
308.494766
 20
21.29806
 30
0.0
 11
310.629109
 21
23.432403
 31
0.0
  0
LINE
  5
1E4
100
AcDbEntity
  8
ALS
 62
     0
100
AcDbLine
 10
305.549672
 20
17.769603
 30
0.0
 11
311.212472
 21
23.432403
 31
0.0
  0
LINE
  5
1E5
100
AcDbEntity
  8
ALS
 62
     0
100
AcDbLine
 10
308.179829
 20
19.816396
 30
0.0
 11
311.795835
 21
23.432403
 31
0.0
  0
LINE
  5
1E6
100
AcDbEntity
  8
ALS
 62
     0
100
AcDbLine
 10
308.032429
 20
19.085634
 30
0.0
 11
312.379198
 21
23.432403
 31
0.0
  0
LINE
  5
1E7
100
AcDbEntity
  8
ALS
 62
     0
100
AcDbLine
 10
308.09692
 20
18.566761
 30
0.0
 11
310.315569
 21
20.785411
 31
0.0
  0
LINE
  5
1E8
100
AcDbEntity
  8
ALS
 62
     0
100
AcDbLine
 10
308.627458
 20
17.930573
 30
0.0
 11
310.354088
 21
19.657203
 31
0.0
  0
LINE
  5
1E9
100
AcDbEntity
  8
ALS
 62
     0
100
AcDbLine
 10
309.061469
 20
17.78122
 30
0.0
 11
310.937451
 21
19.657203
 31
0.0
  0
LINE
  5
1EA
100
AcDbEntity
  8
ALS
 62
     0
100
AcDbLine
 10
309.633214
 20
17.769603
 30
0.0
 11
311.520814
 21
19.657203
 31
0.0
  0
LINE
  5
1EB
100
AcDbEntity
  8
ALS
 62
     0
100
AcDbLine
 10
308.309898
 20
18.196376
 30
0.0
 11
310.158101
 21
20.044579
 31
0.0
  0
ARC
  5
1EC
100
AcDbEntity
  8
ALS
100
AcDbCircle
 10
305.000678
 20
21.201603
 30
0.0
 40
0.3432
100
AcDbArc
 50
90.0
 51
168.0
  0
ARC
  5
1ED
100
AcDbEntity
  8
ALS
100
AcDbCircle
 10
305.936915
 20
19.828803
 30
0.0
 40
0.1716
100
AcDbArc
 50
270.0
 51
348.0
  0
ARC
  5
1EE
100
AcDbEntity
  8
ALS
100
AcDbCircle
 10
304.533446
 20
19.828803
 30
0.0
 40
0.1716
100
AcDbArc
 50
168.0
 51
270.0
  0
ARC
  5
1EF
100
AcDbEntity
  8
ALS
100
AcDbCircle
 10
306.0394
 20
19.485603
 30
0.0
 40
1.716
100
AcDbArc
 50
270.0
 51
348.0
  0
ARC
  5
1F0
100
AcDbEntity
  8
ALS
100
AcDbCircle
 10
304.759234
 20
21.716403
 30
0.0
 40
1.716
100
AcDbArc
 50
90.0
 51
168.0
  0
ARC
  5
1F1
100
AcDbEntity
  8
ALS
100
AcDbCircle
 10
309.228128
 20
18.970803
 30
0.0
 40
1.2012
100
AcDbArc
 50
168.0
 51
270.0
  0
LINE
  5
1F2
100
AcDbEntity
  8
ALS
100
AcDbLine
 10
303.649338
 20
17.769603
 30
0.0
 11
306.0394
 21
17.769603
 31
0.0
  0
LINE
  5
1F3
100
AcDbEntity
  8
ALS
100
AcDbLine
 10
308.632654
 20
23.432403
 30
0.0
 11
304.759234
 21
23.432403
 31
0.0
  0
LINE
  5
1F4
100
AcDbEntity
  8
ALS
100
AcDbLine
 10
308.231433
 20
21.544803
 30
0.0
 11
305.000678
 21
21.544803
 31
0.0
  0
LINE
  5
1F5
100
AcDbEntity
  8
ALS
100
AcDbLine
 10
307.830211
 20
19.657203
 30
0.0
 11
308.145991
 21
19.657203
 31
0.0
  0
LINE
  5
1F6
100
AcDbEntity
  8
ALS
100
AcDbLine
 10
304.533446
 20
19.657203
 30
0.0
 11
305.936915
 21
19.657203
 31
0.0
  0
LINE
  5
1F7
100
AcDbEntity
  8
ALS
100
AcDbLine
 10
308.231433
 20
21.544803
 30
0.0
 11
308.632654
 21
23.432403
 31
0.0
  0
LINE
  5
1F8
100
AcDbEntity
  8
ALS
100
AcDbLine
 10
308.053177
 20
19.220546
 30
0.0
 11
308.659523
 21
22.073179
 31
0.0
  0
LINE
  5
1F9
100
AcDbEntity
  8
ALS
100
AcDbLine
 10
308.36484
 20
20.686803
 30
0.0
 11
306.294723
 21
20.686803
 31
0.0
  0
LINE
  5
1FA
100
AcDbEntity
  8
ALS
100
AcDbLine
 10
306.104766
 20
19.793125
 30
0.0
 11
306.294723
 21
20.686803
 31
0.0
  0
LINE
  5
1FB
100
AcDbEntity
  8
ALS
100
AcDbLine
 10
304.365596
 20
19.86448
 30
0.0
 11
304.664977
 21
21.272958
 31
0.0
  0
LINE
  5
1FC
100
AcDbEntity
  8
ALS
100
AcDbLine
 10
307.717901
 20
19.128826
 30
0.0
 11
307.830211
 21
19.657203
 31
0.0
  0
LINE
  5
1FD
100
AcDbEntity
  8
ALS
100
AcDbLine
 10
302.474387
 20
19.220546
 30
0.0
 11
303.080733
 21
22.073179
 31
0.0
  0
LINE
  5
1FE
100
AcDbEntity
  8
ALS
 62
     0
100
AcDbLine
 10
305.241331
 20
21.544803
 30
0.0
 11
307.128931
 21
23.432403
 31
0.0
  0
LINE
  5
1FF
100
AcDbEntity
  8
ALS
 62
     0
100
AcDbLine
 10
302.465257
 20
18.768729
 30
0.0
 11
304.582781
 21
20.886253
 31
0.0
  0
LINE
  5
200
100
AcDbEntity
  8
ALS
 62
     0
100
AcDbLine
 10
302.51236
 20
19.399195
 30
0.0
 11
306.545567
 21
23.432403
 31
0.0
  0
LINE
  5
201
100
AcDbEntity
  8
ALS
 62
     0
100
AcDbLine
 10
302.669829
 20
20.140027
 30
0.0
 11
305.962204
 21
23.432403
 31
0.0
  0
LINE
  5
202
100
AcDbEntity
  8
ALS
 62
     0
100
AcDbLine
 10
302.827298
 20
20.880859
 30
0.0
 11
305.378841
 21
23.432403
 31
0.0
  0
LINE
  5
203
100
AcDbEntity
  8
ALS
 62
     0
100
AcDbLine
 10
302.984766
 20
21.621691
 30
0.0
 11
304.795478
 21
23.432403
 31
0.0
  0
LINE
  5
204
100
AcDbEntity
  8
ALS
 62
     0
100
AcDbLine
 10
303.18961
 20
22.409897
 30
0.0
 11
304.06574
 21
23.286027
 31
0.0
  0
LINE
  5
205
100
AcDbEntity
  8
ALS
 62
     0
100
AcDbLine
 10
305.824694
 20
21.544803
 30
0.0
 11
307.712294
 21
23.432403
 31
0.0
  0
LINE
  5
206
100
AcDbEntity
  8
ALS
 62
     0
100
AcDbLine
 10
302.624358
 20
18.344467
 30
0.0
 11
304.425312
 21
20.145421
 31
0.0
  0
LINE
  5
207
100
AcDbEntity
  8
ALS
 62
     0
100
AcDbLine
 10
302.897357
 20
18.034103
 30
0.0
 11
304.520915
 21
19.657661
 31
0.0
  0
LINE
  5
208
100
AcDbEntity
  8
ALS
 62
     0
100
AcDbLine
 10
306.408057
 20
21.544803
 30
0.0
 11
308.295657
 21
23.432403
 31
0.0
  0
LINE
  5
209
100
AcDbEntity
  8
ALS
 62
     0
100
AcDbLine
 10
303.275782
 20
17.829165
 30
0.0
 11
305.10382
 21
19.657203
 31
0.0
  0
LINE
  5
20A
100
AcDbEntity
  8
ALS
 62
     0
100
AcDbLine
 10
306.99142
 20
21.544803
 30
0.0
 11
308.566152
 21
23.119535
 31
0.0
  0
LINE
  5
20B
100
AcDbEntity
  8
ALS
 62
     0
100
AcDbLine
 10
303.799583
 20
17.769603
 30
0.0
 11
305.687183
 21
19.657203
 31
0.0
  0
LINE
  5
20C
100
AcDbEntity
  8
ALS
 62
     0
100
AcDbLine
 10
307.574783
 20
21.544803
 30
0.0
 11
308.408684
 21
22.378703
 31
0.0
  0
LINE
  5
20D
100
AcDbEntity
  8
ALS
 62
     0
100
AcDbLine
 10
306.180795
 20
20.150814
 30
0.0
 11
306.716783
 21
20.686803
 31
0.0
  0
LINE
  5
20E
100
AcDbEntity
  8
ALS
 62
     0
100
AcDbLine
 10
304.382946
 20
17.769603
 30
0.0
 11
307.300146
 21
20.686803
 31
0.0
  0
LINE
  5
20F
100
AcDbEntity
  8
ALS
 62
     0
100
AcDbLine
 10
308.652235
 20
22.038892
 30
0.0
 11
310.015085
 21
23.401741
 31
0.0
  0
LINE
  5
210
100
AcDbEntity
  8
ALS
 62
     0
100
AcDbLine
 10
308.158146
 20
21.544803
 30
0.0
 11
308.251215
 21
21.637872
 31
0.0
  0
LINE
  5
211
100
AcDbEntity
  8
ALS
 62
     0
100
AcDbLine
 10
304.966309
 20
17.769603
 30
0.0
 11
307.883509
 21
20.686803
 31
0.0
  0
LINE
  5
212
100
AcDbEntity
  8
ALS
 62
     0
100
AcDbLine
 10
306.135742
 20
17.772309
 30
0.0
 11
307.778809
 21
19.415376
 31
0.0
  0
LINE
  5
213
100
AcDbEntity
  8
ALS
 62
     0
100
AcDbLine
 10
307.034114
 20
18.087318
 30
0.0
 11
307.437684
 21
18.490888
 31
0.0
  0
ARC
  5
214
100
AcDbEntity
  8
ALS
100
AcDbCircle
 10
310.615942
 20
21.373203
 30
0.0
 40
0.1716
100
AcDbArc
 50
90.0
 51
168.0
  0
LINE
  5
215
100
AcDbEntity
  8
ALS
100
AcDbLine
 10
313.459355
 20
21.544803
 30
0.0
 11
313.860577
 21
23.432403
 31
0.0
  0
LINE
  5
216
100
AcDbEntity
  8
ALS
100
AcDbLine
 10
310.28767
 20
19.657203
 30
0.0
 11
313.058133
 21
19.657203
 31
0.0
  0
LINE
  5
217
100
AcDbEntity
  8
ALS
100
AcDbLine
 10
312.656912
 20
17.769603
 30
0.0
 11
313.058133
 21
19.657203
 31
0.0
  0
LINE
  5
218
100
AcDbEntity
  8
ALS
100
AcDbLine
 10
313.459355
 20
21.544803
 30
0.0
 11
310.615942
 21
21.544803
 31
0.0
  0
LINE
  5
219
100
AcDbEntity
  8
ALS
100
AcDbLine
 10
313.860577
 20
23.432403
 30
0.0
 11
310.338024
 21
23.432403
 31
0.0
  0
LINE
  5
21A
100
AcDbEntity
  8
ALS
 62
     0
100
AcDbLine
 10
311.074962
 20
21.544803
 30
0.0
 11
312.962562
 21
23.432403
 31
0.0
  0
LINE
  5
21B
100
AcDbEntity
  8
ALS
 62
     0
100
AcDbLine
 10
311.658325
 20
21.544803
 30
0.0
 11
313.545925
 21
23.432403
 31
0.0
  0
LINE
  5
21C
100
AcDbEntity
  8
ALS
 62
     0
100
AcDbLine
 10
312.241688
 20
21.544803
 30
0.0
 11
313.788043
 21
23.091158
 31
0.0
  0
LINE
  5
21D
100
AcDbEntity
  8
ALS
 62
     0
100
AcDbLine
 10
312.825051
 20
21.544803
 30
0.0
 11
313.630575
 21
22.350326
 31
0.0
  0
LINE
  5
21E
100
AcDbEntity
  8
ALS
 62
     0
100
AcDbLine
 10
313.408414
 20
21.544803
 30
0.0
 11
313.473106
 21
21.609495
 31
0.0
  0
LINE
  5
21F
100
AcDbEntity
  8
ALS
 62
     0
100
AcDbLine
 10
310.216577
 20
17.769603
 30
0.0
 11
312.104177
 21
19.657203
 31
0.0
  0
LINE
  5
220
100
AcDbEntity
  8
ALS
 62
     0
100
AcDbLine
 10
310.79994
 20
17.769603
 30
0.0
 11
312.68754
 21
19.657203
 31
0.0
  0
LINE
  5
221
100
AcDbEntity
  8
ALS
 62
     0
100
AcDbLine
 10
311.383303
 20
17.769603
 30
0.0
 11
313.0007
 21
19.386999
 31
0.0
  0
LINE
  5
222
100
AcDbEntity
  8
ALS
 62
     0
100
AcDbLine
 10
311.966666
 20
17.769603
 30
0.0
 11
312.843231
 21
18.646168
 31
0.0
  0
LINE
  5
223
100
AcDbEntity
  8
ALS
 62
     0
100
AcDbLine
 10
312.550029
 20
17.769603
 30
0.0
 11
312.685763
 21
17.905336
 31
0.0
  0
ARC
  5
224
100
AcDbEntity
  8
AHJ
  6
BYBLOCK
 62
     0
100
AcDbCircle
 10
313.792759
 20
89.690066
 30
0.0
 40
0.5
100
AcDbArc
 50
0.0
 51
180.0
  0
ARC
  5
225
100
AcDbEntity
  8
AHJ
  6
BYBLOCK
 62
     0
100
AcDbCircle
 10
313.792759
 20
89.690066
 30
0.0
 40
0.5
100
AcDbArc
 50
180.0
 51
0.0
  0
LINE
  5
226
100
AcDbEntity
  8
AHJ
  6
BYBLOCK
 62
     0
100
AcDbLine
 10
312.792759
 20
89.690066
 30
0.0
 11
311.792759
 21
89.690066
 31
0.0
  0
POINT
  5
227
100
AcDbEntity
  8
DEFPOINTS
 62
     0
100
AcDbPoint
 10
313.792759
 20
89.690066
 30
0.0
  0
TEXT
  5
228
100
AcDbEntity
  8
0
 62
     0
100
AcDbText
 10
252.683084
 20
247.94185
 30
0.0
 40
6.0
  1
W-48
100
AcDbText
1001
ACAD
1000
MTEXTBEGIN
1070
    73
1070
     1
1070
    44
1040
1.0
1070
    74
1070
     0
1000
MTEXTEND
  0
TEXT
  5
229
100
AcDbEntity
  8
0
 62
     0
100
AcDbText
 10
255.540227
 20
107.690066
 30
0.0
 40
6.0
  1
W-5
100
AcDbText
1001
ACAD
1000
MTEXTBEGIN
1070
    73
1070
     1
1070
    44
1040
1.0
1070
    74
1070
     0
1000
MTEXTEND
  0
LINE
  5
22A
100
AcDbEntity
  8
ADM
 62
     0
100
AcDbLine
 10
221.501981
 20
105.690066
 30
0.0
 11
309.292759
 21
105.690066
 31
0.0
1001
ACAD
1000
RTLwPs
1070
   158
  0
LINE
  5
22B
100
AcDbEntity
  8
ADM
 62
     0
100
AcDbLine
 10
243.001981
 20
245.94185
 30
0.0
 11
287.792759
 21
245.94185
 31
0.0
1001
ACAD
1000
RTLwPs
1070
   158
  0
LINE
  5
22C
100
AcDbEntity
  8
ALS
100
AcDbLine
 10
265.64737
 20
183.186097
 30
0.0
 11
311.292759
 21
183.186097
 31
0.0
  0
LINE
  5
22D
100
AcDbEntity
  8
1BUHIN
100
AcDbLine
 10
265.64737
 20
221.186097
 30
0.0
 11
299.792759
 21
221.186097
 31
0.0
  0
LINE
  5
22E
100
AcDbEntity
  8
1BUHIN
100
AcDbLine
 10
265.64737
 20
223.186097
 30
0.0
 11
299.792759
 21
223.186097
 31
0.0
  0
LINE
  5
22F
100
AcDbEntity
  8
ALS
100
AcDbLine
 10
265.64737
 20
225.186097
 30
0.0
 11
307.792759
 21
225.186097
 31
0.0
  0
LINE
  5
230
100
AcDbEntity
  8
ALS
100
AcDbLine
 10
265.64737
 20
225.186097
 30
0.0
 11
289.792759
 21
225.186097
 31
0.0
  0
LINE
  5
231
100
AcDbEntity
  8
ALS
100
AcDbLine
 10
265.64737
 20
228.186097
 30
0.0
 11
325.792759
 21
228.186097
 31
0.0
  0
LINE
  5
232
100
AcDbEntity
  8
1AL
100
AcDbLine
 10
168.001981
 20
199.436097
 30
0.0
 11
168.001981
 21
188.186097
 31
0.0
  0
LINE
  5
233
100
AcDbEntity
  8
1AL
100
AcDbLine
 10
167.001981
 20
201.186097
 30
0.0
 11
167.001981
 21
186.686097
 31
0.0
  0
LINE
  5
234
100
AcDbEntity
  8
1AL
100
AcDbLine
 10
226.001981
 20
199.436097
 30
0.0
 11
226.001981
 21
188.186097
 31
0.0
  0
LINE
  5
235
100
AcDbEntity
  8
1AL
100
AcDbLine
 10
227.001981
 20
201.186097
 30
0.0
 11
227.001981
 21
186.686097
 31
0.0
  0
LINE
  5
236
100
AcDbEntity
  8
1AL
  6
HIDDEN
100
AcDbLine
 10
165.001981
 20
186.186097
 30
0.0
 11
165.001981
 21
197.686097
 31
0.0
  0
LINE
  5
237
100
AcDbEntity
  8
1AL
  6
HIDDEN
100
AcDbLine
 10
166.001981
 20
197.786097
 30
0.0
 11
166.001981
 21
186.786097
 31
0.0
  0
ARC
  5
238
100
AcDbEntity
  8
1AL
100
AcDbCircle
 10
173.376981
 20
189.311097
 30
0.0
 40
0.625
100
AcDbArc
 50
270.0
 51
90.0
  0
LINE
  5
239
100
AcDbEntity
  8
1AL
100
AcDbLine
 10
168.001981
 20
188.686097
 30
0.0
 11
168.001981
 21
199.186097
 31
0.0
  0
ARC
  5
23A
100
AcDbEntity
  8
1AL
100
AcDbCircle
 10
220.626981
 20
189.311097
 30
0.0
 40
0.625
100
AcDbArc
 50
90.0
 51
270.0
  0
LINE
  5
23B
100
AcDbEntity
  8
1AL
100
AcDbLine
 10
226.001981
 20
188.686097
 30
0.0
 11
226.001981
 21
199.186097
 31
0.0
  0
LINE
  5
23C
100
AcDbEntity
  8
ACL
  6
CENTER2
100
AcDbLine
 10
262.64737
 20
237.945291
 30
0.0
 11
262.64737
 21
175.168833
 31
0.0
  0
LINE
  5
23D
100
AcDbEntity
  8
ACL
  6
CENTER2
100
AcDbLine
 10
265.64737
 20
237.945291
 30
0.0
 11
265.64737
 21
175.168833
 31
0.0
  0
LINE
  5
23E
100
AcDbEntity
  8
ALS
100
AcDbLine
 10
219.501981
 20
218.186097
 30
0.0
 11
219.501981
 21
183.186097
 31
0.0
  0
LINE
  5
23F
100
AcDbEntity
  8
ALS
100
AcDbLine
 10
166.501981
 20
197.996199
 30
0.0
 11
166.501981
 21
186.286097
 31
0.0
  0
LINE
  5
240
100
AcDbEntity
  8
ALS
100
AcDbLine
 10
174.501981
 20
218.186097
 30
0.0
 11
174.501981
 21
183.186097
 31
0.0
  0
LINE
  5
241
100
AcDbEntity
  8
1MOKU
100
AcDbLine
 10
177.001981
 20
218.186097
 30
0.0
 11
177.001981
 21
128.186097
 31
0.0
  0
LINE
  5
242
100
AcDbEntity
  8
1MOKU
100
AcDbLine
 10
217.001981
 20
218.186097
 30
0.0
 11
217.001981
 21
128.186097
 31
0.0
  0
LINE
  5
243
100
AcDbEntity
  8
ALS
100
AcDbLine
 10
177.001981
 20
218.186097
 30
0.0
 11
217.001981
 21
128.186097
 31
0.0
  0
LINE
  5
244
100
AcDbEntity
  8
ALS
100
AcDbLine
 10
217.001981
 20
218.186097
 30
0.0
 11
177.001981
 21
128.186097
 31
0.0
  0
LINE
  5
245
100
AcDbEntity
  8
ACL
  6
CENTER2
100
AcDbLine
 10
197.001981
 20
234.400791
 30
0.0
 11
197.001981
 21
119.134003
 31
0.0
  0
LINE
  5
246
100
AcDbEntity
  8
ACL
  6
CENTER2
100
AcDbLine
 10
197.001981
 20
234.400791
 30
0.0
 11
197.001981
 21
158.46035
 31
0.0
  0
LINE
  5
247
100
AcDbEntity
  8
1MOKU
100
AcDbLine
 10
177.001981
 20
128.186097
 30
0.0
 11
217.001981
 21
128.186097
 31
0.0
  0
LINE
  5
248
100
AcDbEntity
  8
ADM
 62
     0
100
AcDbLine
 10
174.501981
 20
179.186097
 30
0.0
 11
174.501981
 21
103.290066
 31
0.0
1001
ACAD
1000
RTLwPs
1070
   158
  0
ARC
  5
249
100
AcDbEntity
  8
AHJ
  6
BYBLOCK
 62
     0
100
AcDbCircle
 10
174.501981
 20
105.690066
 30
0.0
 40
0.5
100
AcDbArc
 50
0.0
 51
180.0
  0
ARC
  5
24A
100
AcDbEntity
  8
AHJ
  6
BYBLOCK
 62
     0
100
AcDbCircle
 10
174.501981
 20
105.690066
 30
0.0
 40
0.5
100
AcDbArc
 50
180.0
 51
0.0
  0
LINE
  5
24B
100
AcDbEntity
  8
AHJ
  6
BYBLOCK
 62
     0
100
AcDbLine
 10
173.501981
 20
105.690066
 30
0.0
 11
172.501981
 21
105.690066
 31
0.0
  0
POINT
  5
24C
100
AcDbEntity
  8
DEFPOINTS
 62
     0
100
AcDbPoint
 10
174.501981
 20
105.690066
 30
0.0
  0
POINT
  5
24D
100
AcDbEntity
  8
DEFPOINTS
 62
     0
100
AcDbPoint
 10
177.001981
 20
128.186097
 30
0.0
  0
LINE
  5
24E
100
AcDbEntity
  8
1AL
100
AcDbLine
 10
173.376981
 20
188.686097
 30
0.0
 11
170.001981
 21
188.686097
 31
0.0
  0
LINE
  5
24F
100
AcDbEntity
  8
1AL
100
AcDbLine
 10
168.001981
 20
188.186097
 30
0.0
 11
169.001981
 21
188.186097
 31
0.0
  0
LINE
  5
250
100
AcDbEntity
  8
1AL
100
AcDbLine
 10
171.001981
 20
183.186097
 30
0.0
 11
171.001981
 21
184.686097
 31
0.0
  0
LINE
  5
251
100
AcDbEntity
  8
1AL
100
AcDbLine
 10
170.001981
 20
185.186097
 30
0.0
 11
170.001981
 21
184.186097
 31
0.0
  0
LINE
  5
252
100
AcDbEntity
  8
1AL
100
AcDbLine
 10
169.001981
 20
184.186097
 30
0.0
 11
170.001981
 21
184.186097
 31
0.0
  0
LINE
  5
253
100
AcDbEntity
  8
1AL
100
AcDbLine
 10
170.001981
 20
185.186097
 30
0.0
 11
170.501981
 21
185.186097
 31
0.0
  0
ARC
  5
254
100
AcDbEntity
  8
1AL
100
AcDbCircle
 10
170.501981
 20
184.686097
 30
0.0
 40
0.5
100
AcDbArc
 50
0.0
 51
90.0
  0
LINE
  5
255
100
AcDbEntity
  8
1AL
100
AcDbLine
 10
168.001981
 20
186.686097
 30
0.0
 11
168.001981
 21
185.186097
 31
0.0
  0
LINE
  5
256
100
AcDbEntity
  8
1AL
100
AcDbLine
 10
167.001981
 20
185.186097
 30
0.0
 11
168.001981
 21
185.186097
 31
0.0
  0
LINE
  5
257
100
AcDbEntity
  8
1AL
100
AcDbLine
 10
167.001981
 20
186.686097
 30
0.0
 11
168.001981
 21
186.686097
 31
0.0
  0
LINE
  5
258
100
AcDbEntity
  8
1AL
100
AcDbLine
 10
167.001981
 20
185.186097
 30
0.0
 11
167.001981
 21
183.186097
 31
0.0
  0
LINE
  5
259
100
AcDbEntity
  8
1AL
100
AcDbLine
 10
167.001981
 20
183.186097
 30
0.0
 11
171.001981
 21
183.186097
 31
0.0
  0
LINE
  5
25A
100
AcDbEntity
  8
1AL
100
AcDbLine
 10
169.001981
 20
188.186097
 30
0.0
 11
169.001981
 21
184.186097
 31
0.0
  0
ARC
  5
25B
100
AcDbEntity
  8
1AL
  6
HIDDEN
100
AcDbCircle
 10
166.001981
 20
186.186097
 30
0.0
 40
1.0
100
AcDbArc
 50
180.0
 51
270.0
  0
LINE
  5
25C
100
AcDbEntity
  8
1AL
  6
HIDDEN
100
AcDbLine
 10
168.001981
 20
185.186097
 30
0.0
 11
166.001981
 21
185.186097
 31
0.0
  0
LINE
  5
25D
100
AcDbEntity
  8
1AL
  6
HIDDEN
100
AcDbLine
 10
168.001981
 20
186.286097
 30
0.0
 11
168.001981
 21
185.186097
 31
0.0
  0
LINE
  5
25E
100
AcDbEntity
  8
1AL
  6
HIDDEN
100
AcDbLine
 10
166.501981
 20
186.286097
 30
0.0
 11
168.001981
 21
186.286097
 31
0.0
  0
ARC
  5
25F
100
AcDbEntity
  8
1AL
  6
HIDDEN
100
AcDbCircle
 10
166.501981
 20
186.786097
 30
0.0
 40
0.5
100
AcDbArc
 50
180.0
 51
270.0
  0
LINE
  5
260
100
AcDbEntity
  8
1AL
100
AcDbLine
 10
169.001981
 20
185.186097
 30
0.0
 11
169.001981
 21
188.686097
 31
0.0
  0
LINE
  5
261
100
AcDbEntity
  8
1AL
100
AcDbLine
 10
169.001981
 20
188.686097
 30
0.0
 11
168.001981
 21
188.686097
 31
0.0
  0
LINE
  5
262
100
AcDbEntity
  8
1AL
100
AcDbLine
 10
170.001981
 20
184.186097
 30
0.0
 11
170.001981
 21
184.186097
 31
0.0
  0
LINE
  5
263
100
AcDbEntity
  8
1AL
100
AcDbLine
 10
170.001981
 20
184.186097
 30
0.0
 11
170.001981
 21
188.686097
 31
0.0
  0
ARC
  5
264
100
AcDbEntity
  8
1AL
100
AcDbCircle
 10
170.001981
 20
185.186097
 30
0.0
 40
1.0
100
AcDbArc
 50
180.0
 51
270.0
  0
LINE
  5
265
100
AcDbEntity
  8
ALS
100
AcDbLine
 10
166.501981
 20
185.186097
 30
0.0
 11
166.501981
 21
183.186097
 31
0.0
  0
POINT
  5
266
100
AcDbEntity
  8
DEFPOINTS
 62
     0
100
AcDbPoint
 10
174.501981
 20
183.186097
 30
0.0
  0
LINE
  5
267
100
AcDbEntity
  8
ADM
 62
     0
100
AcDbLine
 10
219.501981
 20
179.186097
 30
0.0
 11
219.501981
 21
103.290066
 31
0.0
1001
ACAD
1000
RTLwPs
1070
   158
  0
ARC
  5
268
100
AcDbEntity
  8
AHJ
  6
BYBLOCK
 62
     0
100
AcDbCircle
 10
219.501981
 20
105.690066
 30
0.0
 40
0.5
100
AcDbArc
 50
180.0
 51
0.0
  0
ARC
  5
269
100
AcDbEntity
  8
AHJ
  6
BYBLOCK
 62
     0
100
AcDbCircle
 10
219.501981
 20
105.690066
 30
0.0
 40
0.5
100
AcDbArc
 50
0.0
 51
180.0
  0
LINE
  5
26A
100
AcDbEntity
  8
AHJ
  6
BYBLOCK
 62
     0
100
AcDbLine
 10
220.501981
 20
105.690066
 30
0.0
 11
221.501981
 21
105.690066
 31
0.0
  0
POINT
  5
26B
100
AcDbEntity
  8
DEFPOINTS
 62
     0
100
AcDbPoint
 10
217.001981
 20
128.186097
 30
0.0
  0
LINE
  5
26C
100
AcDbEntity
  8
ALS
100
AcDbLine
 10
219.501981
 20
183.186097
 30
0.0
 11
262.64737
 21
183.186097
 31
0.0
  0
LINE
  5
26D
100
AcDbEntity
  8
1AL
100
AcDbLine
 10
226.001981
 20
188.186097
 30
0.0
 11
225.001981
 21
188.186097
 31
0.0
  0
LINE
  5
26E
100
AcDbEntity
  8
1AL
100
AcDbLine
 10
227.001981
 20
183.186097
 30
0.0
 11
223.001981
 21
183.186097
 31
0.0
  0
LINE
  5
26F
100
AcDbEntity
  8
1AL
100
AcDbLine
 10
225.001981
 20
188.686097
 30
0.0
 11
226.001981
 21
188.686097
 31
0.0
  0
LINE
  5
270
100
AcDbEntity
  8
1AL
100
AcDbLine
 10
223.001981
 20
183.186097
 30
0.0
 11
223.001981
 21
184.686097
 31
0.0
  0
LINE
  5
271
100
AcDbEntity
  8
1AL
100
AcDbLine
 10
224.001981
 20
185.186097
 30
0.0
 11
224.001981
 21
184.186097
 31
0.0
  0
LINE
  5
272
100
AcDbEntity
  8
1AL
100
AcDbLine
 10
225.001981
 20
184.186097
 30
0.0
 11
224.001981
 21
184.186097
 31
0.0
  0
LINE
  5
273
100
AcDbEntity
  8
1AL
100
AcDbLine
 10
224.001981
 20
185.186097
 30
0.0
 11
223.501981
 21
185.186097
 31
0.0
  0
ARC
  5
274
100
AcDbEntity
  8
1AL
100
AcDbCircle
 10
223.501981
 20
184.686097
 30
0.0
 40
0.5
100
AcDbArc
 50
90.0
 51
180.0
  0
LINE
  5
275
100
AcDbEntity
  8
1AL
100
AcDbLine
 10
225.001981
 20
188.186097
 30
0.0
 11
225.001981
 21
184.186097
 31
0.0
  0
POINT
  5
276
100
AcDbEntity
  8
DEFPOINTS
 62
     0
100
AcDbPoint
 10
219.501981
 20
183.186097
 30
0.0
  0
LINE
  5
277
100
AcDbEntity
  8
1AL
100
AcDbLine
 10
225.001981
 20
185.186097
 30
0.0
 11
225.001981
 21
188.686097
 31
0.0
  0
LINE
  5
278
100
AcDbEntity
  8
1AL
100
AcDbLine
 10
220.626981
 20
188.686097
 30
0.0
 11
224.001981
 21
188.686097
 31
0.0
  0
LINE
  5
279
100
AcDbEntity
  8
1AL
100
AcDbLine
 10
224.001981
 20
184.186097
 30
0.0
 11
224.001981
 21
184.186097
 31
0.0
  0
LINE
  5
27A
100
AcDbEntity
  8
1AL
100
AcDbLine
 10
224.001981
 20
184.186097
 30
0.0
 11
224.001981
 21
188.686097
 31
0.0
  0
ARC
  5
27B
100
AcDbEntity
  8
1AL
100
AcDbCircle
 10
224.001981
 20
185.186097
 30
0.0
 40
1.0
100
AcDbArc
 50
270.0
 51
0.0
  0
LINE
  5
27C
100
AcDbEntity
  8
1AL
100
AcDbLine
 10
226.001981
 20
186.686097
 30
0.0
 11
226.001981
 21
185.186097
 31
0.0
  0
LINE
  5
27D
100
AcDbEntity
  8
1AL
100
AcDbLine
 10
227.001981
 20
185.186097
 30
0.0
 11
226.001981
 21
185.186097
 31
0.0
  0
LINE
  5
27E
100
AcDbEntity
  8
1AL
100
AcDbLine
 10
227.001981
 20
186.686097
 30
0.0
 11
226.001981
 21
186.686097
 31
0.0
  0
LINE
  5
27F
100
AcDbEntity
  8
1AL
100
AcDbLine
 10
227.001981
 20
185.186097
 30
0.0
 11
227.001981
 21
183.186097
 31
0.0
  0
LINE
  5
280
100
AcDbEntity
  8
1BUHIN
  6
HIDDEN
 48
0.5
100
AcDbLine
 10
178.278545
 20
226.26134
 30
0.0
 11
215.897048
 21
226.26134
 31
0.0
  0
LINE
  5
281
100
AcDbEntity
  8
1BUHIN
  6
HIDDEN
 48
0.5
100
AcDbLine
 10
178.278545
 20
226.917476
 30
0.0
 11
215.897048
 21
226.917476
 31
0.0
  0
LINE
  5
282
100
AcDbEntity
  8
1AL
100
AcDbLine
 10
214.001981
 20
224.686097
 30
0.0
 11
206.001981
 21
224.686097
 31
0.0
  0
LINE
  5
283
100
AcDbEntity
  8
1AL
100
AcDbLine
 10
213.001981
 20
223.686097
 30
0.0
 11
206.001981
 21
223.686097
 31
0.0
  0
LINE
  5
284
100
AcDbEntity
  8
ALS
100
AcDbLine
 10
215.001981
 20
225.186097
 30
0.0
 11
205.001981
 21
225.186097
 31
0.0
  0
LINE
  5
285
100
AcDbEntity
  8
1MOKU
100
AcDbLine
 10
178.501981
 20
218.186097
 30
0.0
 11
217.001981
 21
218.186097
 31
0.0
  0
LINE
  5
286
100
AcDbEntity
  8
ALS
100
AcDbLine
 10
174.501981
 20
218.186097
 30
0.0
 11
219.501981
 21
218.186097
 31
0.0
  0
LINE
  5
287
100
AcDbEntity
  8
ALS
100
AcDbLine
 10
199.501981
 20
225.186097
 30
0.0
 11
262.64737
 21
225.186097
 31
0.0
  0
LINE
  5
288
100
AcDbEntity
  8
ALS
100
AcDbLine
 10
197.001981
 20
225.186097
 30
0.0
 11
262.64737
 21
225.186097
 31
0.0
  0
LINE
  5
289
100
AcDbEntity
  8
ALS
100
AcDbLine
 10
197.001981
 20
228.186097
 30
0.0
 11
262.64737
 21
228.186097
 31
0.0
  0
LINE
  5
28A
100
AcDbEntity
  8
ADM
 62
     0
100
AcDbLine
 10
153.001981
 20
229.186097
 30
0.0
 11
153.001981
 21
248.34185
 31
0.0
1001
ACAD
1000
RTLwPs
1070
   158
  0
LINE
  5
28B
100
AcDbEntity
  8
1AL
100
AcDbLine
 10
170.001981
 20
220.186097
 30
0.0
 11
180.001981
 21
220.186097
 31
0.0
  0
LINE
  5
28C
100
AcDbEntity
  8
1AL
100
AcDbLine
 10
170.001981
 20
219.186097
 30
0.0
 11
180.001981
 21
219.186097
 31
0.0
  0
LINE
  5
28D
100
AcDbEntity
  8
1AL
100
AcDbLine
 10
166.001981
 20
202.786097
 30
0.0
 11
166.001981
 21
213.786097
 31
0.0
  0
LINE
  5
28E
100
AcDbEntity
  8
1AL
100
AcDbLine
 10
165.001981
 20
202.186097
 30
0.0
 11
165.001981
 21
213.686097
 31
0.0
  0
LINE
  5
28F
100
AcDbEntity
  8
1AL
100
AcDbLine
 10
167.001981
 20
217.186097
 30
0.0
 11
167.001981
 21
202.686097
 31
0.0
  0
LINE
  5
290
100
AcDbEntity
  8
1AL
100
AcDbLine
 10
168.001981
 20
214.686097
 30
0.0
 11
168.001981
 21
205.436097
 31
0.0
  0
LINE
  5
291
100
AcDbEntity
  8
1AL
  6
HIDDEN
100
AcDbLine
 10
159.001981
 20
206.286097
 30
0.0
 11
159.001981
 21
213.086097
 31
0.0
  0
LINE
  5
292
100
AcDbEntity
  8
1AL
  6
HIDDEN
100
AcDbLine
 10
160.101981
 20
214.186097
 30
0.0
 11
160.101981
 21
205.186097
 31
0.0
  0
LINE
  5
293
100
AcDbEntity
  8
1AL
100
AcDbLine
 10
174.001981
 20
209.936097
 30
0.0
 11
174.001981
 21
210.954046
 31
0.0
  0
LINE
  5
294
100
AcDbEntity
  8
1AL
100
AcDbLine
 10
168.001981
 20
205.686097
 30
0.0
 11
168.001981
 21
215.186097
 31
0.0
  0
LINE
  5
295
100
AcDbEntity
  8
ACL
  6
CENTER
100
AcDbLine
 10
171.001981
 20
192.436097
 30
0.0
 11
171.001981
 21
217.526559
 31
0.0
  0
LINE
  5
296
100
AcDbEntity
  8
1AL
  6
HIDDEN
100
AcDbLine
 10
164.501981
 20
198.186097
 30
0.0
 11
154.001981
 21
198.186097
 31
0.0
  0
LINE
  5
297
100
AcDbEntity
  8
1AL
  6
HIDDEN
100
AcDbLine
 10
154.501981
 20
199.186097
 30
0.0
 11
166.001981
 21
199.186097
 31
0.0
  0
LINE
  5
298
100
AcDbEntity
  8
ACL
  6
CENTER
100
AcDbLine
 10
174.155964
 20
191.186097
 30
0.0
 11
162.094927
 21
191.186097
 31
0.0
  0
LINE
  5
299
100
AcDbEntity
  8
ACL
  6
CENTER
100
AcDbLine
 10
174.155964
 20
208.186097
 30
0.0
 11
162.094927
 21
208.186097
 31
0.0
  0
LINE
  5
29A
100
AcDbEntity
  8
ACL
  6
CENTER2
100
AcDbLine
 10
162.065539
 20
191.186097
 30
0.0
 11
173.903743
 21
191.186097
 31
0.0
  0
LINE
  5
29B
100
AcDbEntity
  8
1AL
  6
HIDDEN
100
AcDbLine
 10
154.001981
 20
202.686097
 30
0.0
 11
154.001981
 21
199.686097
 31
0.0
  0
LINE
  5
29C
100
AcDbEntity
  8
1AL
  6
HIDDEN
100
AcDbLine
 10
153.001981
 20
199.186097
 30
0.0
 11
153.001981
 21
203.798592
 31
0.0
  0
ARC
  5
29D
100
AcDbEntity
  8
1AL
  6
HIDDEN
100
AcDbCircle
 10
154.001981
 20
199.186097
 30
0.0
 40
1.0
100
AcDbArc
 50
180.0
 51
270.0
  0
ARC
  5
29E
100
AcDbEntity
  8
1AL
  6
HIDDEN
100
AcDbCircle
 10
154.501981
 20
199.686097
 30
0.0
 40
0.5
100
AcDbArc
 50
180.0
 51
270.0
  0
LINE
  5
29F
100
AcDbEntity
  8
1AL
  6
HIDDEN
100
AcDbLine
 10
162.001981
 20
203.186097
 30
0.0
 11
154.501981
 21
203.186097
 31
0.0
  0
ARC
  5
2A0
100
AcDbEntity
  8
1AL
  6
HIDDEN
100
AcDbCircle
 10
157.501981
 20
188.186097
 30
0.0
 40
17.0
100
AcDbArc
 50
74.650523
 51
102.635625
  0
LINE
  5
2A1
100
AcDbEntity
  8
1AL
  6
HIDDEN
100
AcDbLine
 10
152.101981
 20
206.286097
 30
0.0
 11
159.001981
 21
206.286097
 31
0.0
  0
LINE
  5
2A2
100
AcDbEntity
  8
1AL
  6
HIDDEN
100
AcDbLine
 10
160.101981
 20
205.186097
 30
0.0
 11
152.101981
 21
205.186097
 31
0.0
  0
ARC
  5
2A3
100
AcDbEntity
  8
1AL
  6
HIDDEN
100
AcDbCircle
 10
154.501981
 20
202.686097
 30
0.0
 40
0.5
100
AcDbArc
 50
90.0
 51
180.0
  0
ARC
  5
2A4
100
AcDbEntity
  8
1AL
  6
HIDDEN
100
AcDbCircle
 10
154.001981
 20
203.798592
 30
0.0
 40
1.0
100
AcDbArc
 50
102.635625
 51
180.0
  0
LINE
  5
2A5
100
AcDbEntity
  8
1AL
  6
HIDDEN
100
AcDbLine
 10
152.101981
 20
205.186097
 30
0.0
 11
152.101981
 21
206.286097
 31
0.0
  0
LINE
  5
2A6
100
AcDbEntity
  8
1AL
  6
HIDDEN
100
AcDbLine
 10
162.001981
 20
204.579693
 30
0.0
 11
162.001981
 21
203.186097
 31
0.0
  0
LINE
  5
2A7
100
AcDbEntity
  8
1AL
100
AcDbLine
 10
169.001981
 20
205.436097
 30
0.0
 11
169.001981
 21
199.436097
 31
0.0
  0
LINE
  5
2A8
100
AcDbEntity
  8
1AL
100
AcDbLine
 10
169.001981
 20
199.186097
 30
0.0
 11
169.001981
 21
205.686097
 31
0.0
  0
LINE
  5
2A9
100
AcDbEntity
  8
1AL
100
AcDbLine
 10
170.001981
 20
199.402614
 30
0.0
 11
170.001981
 21
205.686097
 31
0.0
  0
LINE
  5
2AA
100
AcDbEntity
  8
ALS
100
AcDbLine
 10
166.501981
 20
201.186097
 30
0.0
 11
166.501981
 21
198.975995
 31
0.0
  0
ARC
  5
2AB
100
AcDbEntity
  8
1AL
100
AcDbCircle
 10
171.001981
 20
195.686097
 30
0.0
 40
3.25
100
AcDbArc
 50
46.686134
 51
97.662256
  0
LINE
  5
2AC
100
AcDbEntity
  8
1AL
100
AcDbLine
 10
173.376981
 20
189.936097
 30
0.0
 11
170.001981
 21
189.936097
 31
0.0
  0
LINE
  5
2AD
100
AcDbEntity
  8
1AL
100
AcDbLine
 10
173.501981
 20
192.436097
 30
0.0
 11
170.001981
 21
192.436097
 31
0.0
  0
LINE
  5
2AE
100
AcDbEntity
  8
ACL
  6
CENTER
100
AcDbLine
 10
174.405932
 20
195.686097
 30
0.0
 11
166.156934
 21
195.686097
 31
0.0
  0
LINE
  5
2AF
100
AcDbEntity
  8
1AL
100
AcDbLine
 10
168.001981
 20
199.436097
 30
0.0
 11
169.001981
 21
199.436097
 31
0.0
  0
ARC
  5
2B0
100
AcDbEntity
  8
1AL
  6
HIDDEN
100
AcDbCircle
 10
164.501981
 20
197.686097
 30
0.0
 40
0.5
100
AcDbArc
 50
0.0
 51
90.0
  0
ARC
  5
2B1
100
AcDbEntity
  8
1AL
  6
HIDDEN
100
AcDbCircle
 10
166.001981
 20
198.486097
 30
0.0
 40
0.7
100
AcDbArc
 50
270.0
 51
90.0
  0
LINE
  5
2B2
100
AcDbEntity
  8
1AL
100
AcDbLine
 10
169.001981
 20
199.186097
 30
0.0
 11
168.001981
 21
199.186097
 31
0.0
  0
ARC
  5
2B3
100
AcDbEntity
  8
1AL
100
AcDbCircle
 10
170.501981
 20
199.402614
 30
0.0
 40
0.5
100
AcDbArc
 50
180.0
 51
277.662256
  0
ARC
  5
2B4
100
AcDbEntity
  8
1AL
100
AcDbCircle
 10
170.001981
 20
191.936097
 30
0.0
 40
0.5
100
AcDbArc
 50
90.0
 51
180.0
  0
ARC
  5
2B5
100
AcDbEntity
  8
1AL
100
AcDbCircle
 10
170.001981
 20
190.436097
 30
0.0
 40
0.5
100
AcDbArc
 50
180.0
 51
270.0
  0
LINE
  5
2B6
100
AcDbEntity
  8
1AL
100
AcDbLine
 10
169.501981
 20
190.436097
 30
0.0
 11
169.501981
 21
191.936097
 31
0.0
  0
LINE
  5
2B7
100
AcDbEntity
  8
1AL
100
AcDbLine
 10
174.001981
 20
192.936097
 30
0.0
 11
174.001981
 21
193.954046
 31
0.0
  0
ARC
  5
2B8
100
AcDbEntity
  8
1AL
100
AcDbCircle
 10
173.501981
 20
192.936097
 30
0.0
 40
0.5
100
AcDbArc
 50
270.0
 51
0.0
  0
LINE
  5
2B9
100
AcDbEntity
  8
1AL
100
AcDbLine
 10
173.501981
 20
209.436097
 30
0.0
 11
170.001981
 21
209.436097
 31
0.0
  0
LINE
  5
2BA
100
AcDbEntity
  8
1AL
100
AcDbLine
 10
173.376981
 20
205.686097
 30
0.0
 11
170.001981
 21
205.686097
 31
0.0
  0
LINE
  5
2BB
100
AcDbEntity
  8
1AL
100
AcDbLine
 10
173.376981
 20
206.936097
 30
0.0
 11
170.001981
 21
206.936097
 31
0.0
  0
LINE
  5
2BC
100
AcDbEntity
  8
1AL
100
AcDbLine
 10
168.001981
 20
202.286097
 30
0.0
 11
166.501981
 21
202.286097
 31
0.0
  0
ARC
  5
2BD
100
AcDbEntity
  8
1AL
100
AcDbCircle
 10
166.001981
 20
202.186097
 30
0.0
 40
1.0
100
AcDbArc
 50
180.0
 51
270.0
  0
LINE
  5
2BE
100
AcDbEntity
  8
1AL
100
AcDbLine
 10
168.001981
 20
201.186097
 30
0.0
 11
166.001981
 21
201.186097
 31
0.0
  0
LINE
  5
2BF
100
AcDbEntity
  8
1AL
100
AcDbLine
 10
168.001981
 20
202.286097
 30
0.0
 11
168.001981
 21
201.186097
 31
0.0
  0
ARC
  5
2C0
100
AcDbEntity
  8
1AL
100
AcDbCircle
 10
166.501981
 20
202.786097
 30
0.0
 40
0.5
100
AcDbArc
 50
180.0
 51
270.0
  0
LINE
  5
2C1
100
AcDbEntity
  8
1AL
100
AcDbLine
 10
168.001981
 20
205.436097
 30
0.0
 11
169.001981
 21
205.436097
 31
0.0
  0
LINE
  5
2C2
100
AcDbEntity
  8
1AL
100
AcDbLine
 10
168.001981
 20
201.186097
 30
0.0
 11
167.001981
 21
201.186097
 31
0.0
  0
LINE
  5
2C3
100
AcDbEntity
  8
1AL
100
AcDbLine
 10
168.001981
 20
202.686097
 30
0.0
 11
167.001981
 21
202.686097
 31
0.0
  0
LINE
  5
2C4
100
AcDbEntity
  8
1AL
100
AcDbLine
 10
168.001981
 20
202.686097
 30
0.0
 11
168.001981
 21
201.186097
 31
0.0
  0
ARC
  5
2C5
100
AcDbEntity
  8
1AL
100
AcDbCircle
 10
170.001981
 20
208.936097
 30
0.0
 40
0.5
100
AcDbArc
 50
90.0
 51
180.0
  0
ARC
  5
2C6
100
AcDbEntity
  8
1AL
100
AcDbCircle
 10
170.001981
 20
207.436097
 30
0.0
 40
0.5
100
AcDbArc
 50
180.0
 51
270.0
  0
LINE
  5
2C7
100
AcDbEntity
  8
1AL
100
AcDbLine
 10
169.001981
 20
205.686097
 30
0.0
 11
168.001981
 21
205.686097
 31
0.0
  0
LINE
  5
2C8
100
AcDbEntity
  8
1AL
100
AcDbLine
 10
169.501981
 20
207.436097
 30
0.0
 11
169.501981
 21
208.936097
 31
0.0
  0
LINE
  5
2C9
100
AcDbEntity
  8
ALS
100
AcDbLine
 10
166.501981
 20
205.186097
 30
0.0
 11
166.501981
 21
202.286097
 31
0.0
  0
LINE
  5
2CA
100
AcDbEntity
  8
ALS
100
AcDbLine
 10
166.001981
 20
205.186097
 30
0.0
 11
166.501981
 21
205.186097
 31
0.0
  0
ARC
  5
2CB
100
AcDbEntity
  8
1AL
100
AcDbCircle
 10
173.501981
 20
209.936097
 30
0.0
 40
0.5
100
AcDbArc
 50
270.0
 51
0.0
  0
ARC
  5
2CC
100
AcDbEntity
  8
1AL
100
AcDbCircle
 10
173.376981
 20
206.311097
 30
0.0
 40
0.625
100
AcDbArc
 50
270.0
 51
90.0
  0
LINE
  5
2CD
100
AcDbEntity
  8
1AL
100
AcDbLine
 10
154.001981
 20
214.186097
 30
0.0
 11
164.501981
 21
214.186097
 31
0.0
  0
LINE
  5
2CE
100
AcDbEntity
  8
1AL
100
AcDbLine
 10
154.501981
 20
215.186097
 30
0.0
 11
166.001981
 21
215.186097
 31
0.0
  0
LINE
  5
2CF
100
AcDbEntity
  8
1AL
100
AcDbLine
 10
170.001981
 20
225.186097
 30
0.0
 11
153.001981
 21
225.186097
 31
0.0
  0
LINE
  5
2D0
100
AcDbEntity
  8
1AL
100
AcDbLine
 10
169.001981
 20
224.186097
 30
0.0
 11
157.501981
 21
224.186097
 31
0.0
  0
LINE
  5
2D1
100
AcDbEntity
  8
1BUHIN
100
AcDbLine
 10
163.001981
 20
223.186097
 30
0.0
 11
163.001981
 21
221.186097
 31
0.0
  0
LINE
  5
2D2
100
AcDbEntity
  8
1AL
100
AcDbLine
 10
154.501981
 20
219.186097
 30
0.0
 11
162.001981
 21
219.186097
 31
0.0
  0
ARC
  5
2D3
100
AcDbEntity
  8
1AL
100
AcDbCircle
 10
157.501981
 20
204.186097
 30
0.0
 40
17.0
100
AcDbArc
 50
74.650523
 51
102.635625
  0
LINE
  5
2D4
100
AcDbEntity
  8
1AL
  6
HIDDEN
100
AcDbLine
 10
152.101981
 20
214.186097
 30
0.0
 11
160.101981
 21
214.186097
 31
0.0
  0
LINE
  5
2D5
100
AcDbEntity
  8
1AL
  6
HIDDEN
100
AcDbLine
 10
159.001981
 20
213.086097
 30
0.0
 11
152.101981
 21
213.086097
 31
0.0
  0
ARC
  5
2D6
100
AcDbEntity
  8
1AL
100
AcDbCircle
 10
154.001981
 20
219.798592
 30
0.0
 40
1.0
100
AcDbArc
 50
102.635625
 51
180.0
  0
LINE
  5
2D7
100
AcDbEntity
  8
1AL
100
AcDbLine
 10
154.001981
 20
215.686097
 30
0.0
 11
154.001981
 21
218.686097
 31
0.0
  0
ARC
  5
2D8
100
AcDbEntity
  8
1AL
100
AcDbCircle
 10
154.501981
 20
218.686097
 30
0.0
 40
0.5
100
AcDbArc
 50
90.0
 51
180.0
  0
ARC
  5
2D9
100
AcDbEntity
  8
1AL
100
AcDbCircle
 10
154.501981
 20
215.686097
 30
0.0
 40
0.5
100
AcDbArc
 50
180.0
 51
270.0
  0
ARC
  5
2DA
100
AcDbEntity
  8
1AL
100
AcDbCircle
 10
154.001981
 20
215.186097
 30
0.0
 40
1.0
100
AcDbArc
 50
180.0
 51
270.0
  0
LINE
  5
2DB
100
AcDbEntity
  8
1AL
100
AcDbLine
 10
153.001981
 20
215.186097
 30
0.0
 11
153.001981
 21
219.798592
 31
0.0
  0
LINE
  5
2DC
100
AcDbEntity
  8
1AL
  6
HIDDEN
100
AcDbLine
 10
152.101981
 20
213.086097
 30
0.0
 11
152.101981
 21
214.186097
 31
0.0
  0
LINE
  5
2DD
100
AcDbEntity
  8
1AL
100
AcDbLine
 10
162.001981
 20
219.186097
 30
0.0
 11
162.001981
 21
220.579693
 31
0.0
  0
LINE
  5
2DE
100
AcDbEntity
  8
1AL
100
AcDbLine
 10
156.501981
 20
224.186097
 30
0.0
 11
154.001981
 21
224.186097
 31
0.0
  0
POINT
  5
2DF
100
AcDbEntity
  8
DEFPOINTS
 62
     0
100
AcDbPoint
 10
153.001981
 20
225.186097
 30
0.0
  0
LINE
  5
2E0
100
AcDbEntity
  8
1AL
100
AcDbLine
 10
153.001981
 20
223.686097
 30
0.0
 11
153.001981
 21
225.186097
 31
0.0
  0
LINE
  5
2E1
100
AcDbEntity
  8
1AL
100
AcDbLine
 10
154.001981
 20
223.686097
 30
0.0
 11
154.001981
 21
224.186097
 31
0.0
  0
ARC
  5
2E2
100
AcDbEntity
  8
1AL
100
AcDbCircle
 10
153.501981
 20
223.686097
 30
0.0
 40
0.5
100
AcDbArc
 50
180.0
 51
0.0
  0
LINE
  5
2E3
100
AcDbEntity
  8
1AL
100
AcDbLine
 10
157.501981
 20
223.686097
 30
0.0
 11
157.501981
 21
224.186097
 31
0.0
  0
LINE
  5
2E4
100
AcDbEntity
  8
1AL
100
AcDbLine
 10
156.501981
 20
223.686097
 30
0.0
 11
156.501981
 21
224.186097
 31
0.0
  0
ARC
  5
2E5
100
AcDbEntity
  8
1AL
100
AcDbCircle
 10
157.001981
 20
223.686097
 30
0.0
 40
0.5
100
AcDbArc
 50
180.0
 51
0.0
  0
LINE
  5
2E6
100
AcDbEntity
  8
1AL
100
AcDbLine
 10
169.001981
 20
220.186097
 30
0.0
 11
169.001981
 21
224.186097
 31
0.0
  0
LINE
  5
2E7
100
AcDbEntity
  8
1AL
100
AcDbLine
 10
170.001981
 20
220.186097
 30
0.0
 11
170.001981
 21
225.186097
 31
0.0
  0
LINE
  5
2E8
100
AcDbEntity
  8
ALS
100
AcDbLine
 10
171.001981
 20
225.186097
 30
0.0
 11
171.001981
 21
220.186097
 31
0.0
  0
ARC
  5
2E9
100
AcDbEntity
  8
1AL
100
AcDbCircle
 10
171.001981
 20
212.686097
 30
0.0
 40
3.25
100
AcDbArc
 50
46.686134
 51
97.662256
  0
LINE
  5
2EA
100
AcDbEntity
  8
ACL
  6
CENTER
100
AcDbLine
 10
166.663984
 20
212.686097
 30
0.0
 11
174.905872
 21
212.686097
 31
0.0
  0
ARC
  5
2EB
100
AcDbEntity
  8
1AL
100
AcDbCircle
 10
166.001981
 20
214.486097
 30
0.0
 40
0.7
100
AcDbArc
 50
270.0
 51
90.0
  0
ARC
  5
2EC
100
AcDbEntity
  8
1AL
100
AcDbCircle
 10
164.501981
 20
213.686097
 30
0.0
 40
0.5
100
AcDbArc
 50
0.0
 51
90.0
  0
LINE
  5
2ED
100
AcDbEntity
  8
1AL
100
AcDbLine
 10
169.501981
 20
218.686097
 30
0.0
 11
168.501981
 21
218.686097
 31
0.0
  0
LINE
  5
2EE
100
AcDbEntity
  8
1AL
100
AcDbLine
 10
169.501981
 20
218.686097
 30
0.0
 11
169.501981
 21
216.186097
 31
0.0
  0
LINE
  5
2EF
100
AcDbEntity
  8
1AL
100
AcDbLine
 10
168.001981
 20
217.186097
 30
0.0
 11
167.001981
 21
217.186097
 31
0.0
  0
LINE
  5
2F0
100
AcDbEntity
  8
1AL
100
AcDbLine
 10
168.001981
 20
218.186097
 30
0.0
 11
168.001981
 21
217.186097
 31
0.0
  0
ARC
  5
2F1
100
AcDbEntity
  8
1AL
100
AcDbCircle
 10
168.501981
 20
218.186097
 30
0.0
 40
0.5
100
AcDbArc
 50
90.0
 51
180.0
  0
LINE
  5
2F2
100
AcDbEntity
  8
1AL
100
AcDbLine
 10
169.501981
 20
216.186097
 30
0.0
 11
168.001981
 21
214.686097
 31
0.0
  0
LINE
  5
2F3
100
AcDbEntity
  8
1AL
100
AcDbLine
 10
169.001981
 20
220.186097
 30
0.0
 11
167.001981
 21
220.186097
 31
0.0
  0
LINE
  5
2F4
100
AcDbEntity
  8
1AL
100
AcDbLine
 10
167.301981
 20
217.186097
 30
0.0
 11
167.001981
 21
217.186097
 31
0.0
  0
LINE
  5
2F5
100
AcDbEntity
  8
1AL
100
AcDbLine
 10
168.001981
 20
217.886097
 30
0.0
 11
168.001981
 21
218.686097
 31
0.0
  0
LINE
  5
2F6
100
AcDbEntity
  8
1AL
100
AcDbLine
 10
169.001981
 20
218.686097
 30
0.0
 11
168.001981
 21
218.686097
 31
0.0
  0
ARC
  5
2F7
100
AcDbEntity
  8
1AL
100
AcDbCircle
 10
167.301981
 20
217.886097
 30
0.0
 40
0.7
100
AcDbArc
 50
270.0
 51
0.0
  0
ARC
  5
2F8
100
AcDbEntity
  8
1AL
100
AcDbCircle
 10
170.501981
 20
216.402614
 30
0.0
 40
0.5
100
AcDbArc
 50
180.0
 51
277.662256
  0
LINE
  5
2F9
100
AcDbEntity
  8
1AL
100
AcDbLine
 10
169.001981
 20
216.186097
 30
0.0
 11
169.001981
 21
218.686097
 31
0.0
  0
LINE
  5
2FA
100
AcDbEntity
  8
1AL
100
AcDbLine
 10
170.001981
 20
216.402614
 30
0.0
 11
170.001981
 21
219.186097
 31
0.0
  0
LINE
  5
2FB
100
AcDbEntity
  8
1AL
100
AcDbLine
 10
169.001981
 20
216.186097
 30
0.0
 11
168.001981
 21
215.186097
 31
0.0
  0
LINE
  5
2FC
100
AcDbEntity
  8
1AL
100
AcDbLine
 10
167.001981
 20
217.186097
 30
0.0
 11
167.001981
 21
220.186097
 31
0.0
  0
LINE
  5
2FD
100
AcDbEntity
  8
ACL
  6
CENTER2
100
AcDbLine
 10
184.001981
 20
227.944834
 30
0.0
 11
184.001981
 21
191.876346
 31
0.0
  0
ARC
  5
2FE
100
AcDbEntity
  8
1GASKET
100
AcDbCircle
 10
197.001981
 20
248.00961
 30
0.0
 40
24.657377
100
AcDbArc
 50
251.067954
 51
288.932046
  0
LINE
  5
2FF
100
AcDbEntity
  8
1GASKET
100
AcDbLine
 10
189.001981
 20
218.186097
 30
0.0
 11
205.001981
 21
218.186097
 31
0.0
  0
LINE
  5
300
100
AcDbEntity
  8
1GASKET
100
AcDbLine
 10
189.001981
 20
224.686097
 30
0.0
 11
189.001981
 21
218.186097
 31
0.0
  0
LINE
  5
301
100
AcDbEntity
  8
1AL
100
AcDbLine
 10
180.001981
 20
224.686097
 30
0.0
 11
180.001981
 21
220.186097
 31
0.0
  0
LINE
  5
302
100
AcDbEntity
  8
1AL
100
AcDbLine
 10
189.001981
 20
224.686097
 30
0.0
 11
189.001981
 21
218.686097
 31
0.0
  0
LINE
  5
303
100
AcDbEntity
  8
1AL
100
AcDbLine
 10
181.001981
 20
223.686097
 30
0.0
 11
181.001981
 21
218.686097
 31
0.0
  0
LINE
  5
304
100
AcDbEntity
  8
1AL
100
AcDbLine
 10
188.001981
 20
223.686097
 30
0.0
 11
188.001981
 21
218.686097
 31
0.0
  0
LINE
  5
305
100
AcDbEntity
  8
ALS
100
AcDbLine
 10
179.001981
 20
225.186097
 30
0.0
 11
179.001981
 21
220.186097
 31
0.0
  0
LINE
  5
306
100
AcDbEntity
  8
1AL
100
AcDbLine
 10
180.001981
 20
219.186097
 30
0.0
 11
180.001981
 21
218.686097
 31
0.0
  0
ARC
  5
307
100
AcDbEntity
  8
1AL
100
AcDbCircle
 10
180.501981
 20
218.686097
 30
0.0
 40
0.5
100
AcDbArc
 50
180.0
 51
0.0
  0
ARC
  5
308
100
AcDbEntity
  8
1AL
100
AcDbCircle
 10
188.501981
 20
218.686097
 30
0.0
 40
0.5
100
AcDbArc
 50
180.0
 51
0.0
  0
LINE
  5
309
100
AcDbEntity
  8
1AL
100
AcDbLine
 10
180.001981
 20
224.686097
 30
0.0
 11
188.001981
 21
224.686097
 31
0.0
  0
LINE
  5
30A
100
AcDbEntity
  8
1AL
100
AcDbLine
 10
181.001981
 20
223.686097
 30
0.0
 11
188.001981
 21
223.686097
 31
0.0
  0
LINE
  5
30B
100
AcDbEntity
  8
ALS
100
AcDbLine
 10
179.001981
 20
225.186097
 30
0.0
 11
189.001981
 21
225.186097
 31
0.0
  0
ARC
  5
30C
100
AcDbEntity
  8
1AL
100
AcDbCircle
 10
188.501981
 20
224.686097
 30
0.0
 40
0.5
100
AcDbArc
 50
0.0
 51
180.0
  0
LINE
  5
30D
100
AcDbEntity
  8
1GASKET
100
AcDbLine
 10
205.001981
 20
218.186097
 30
0.0
 11
205.001981
 21
224.686097
 31
0.0
  0
LINE
  5
30E
100
AcDbEntity
  8
1AL
100
AcDbLine
 10
205.001981
 20
224.686097
 30
0.0
 11
205.001981
 21
218.686097
 31
0.0
  0
LINE
  5
30F
100
AcDbEntity
  8
1AL
100
AcDbLine
 10
206.001981
 20
223.686097
 30
0.0
 11
206.001981
 21
218.686097
 31
0.0
  0
ARC
  5
310
100
AcDbEntity
  8
1AL
100
AcDbCircle
 10
205.501981
 20
218.686097
 30
0.0
 40
0.5
100
AcDbArc
 50
180.0
 51
0.0
  0
ARC
  5
311
100
AcDbEntity
  8
1AL
100
AcDbCircle
 10
205.501981
 20
224.686097
 30
0.0
 40
0.5
100
AcDbArc
 50
0.0
 51
180.0
  0
ARC
  5
312
100
AcDbEntity
  8
AHJ
  6
BYBLOCK
 62
     0
100
AcDbCircle
 10
153.001981
 20
245.94185
 30
0.0
 40
0.5
100
AcDbArc
 50
0.0
 51
180.0
  0
ARC
  5
313
100
AcDbEntity
  8
AHJ
  6
BYBLOCK
 62
     0
100
AcDbCircle
 10
153.001981
 20
245.94185
 30
0.0
 40
0.5
100
AcDbArc
 50
180.0
 51
0.0
  0
LINE
  5
314
100
AcDbEntity
  8
AHJ
  6
BYBLOCK
 62
     0
100
AcDbLine
 10
152.001981
 20
245.94185
 30
0.0
 11
151.001981
 21
245.94185
 31
0.0
  0
POINT
  5
315
100
AcDbEntity
  8
DEFPOINTS
 62
     0
100
AcDbPoint
 10
153.001981
 20
245.94185
 30
0.0
  0
LINE
  5
316
100
AcDbEntity
  8
ADM
 62
     0
100
AcDbLine
 10
241.001981
 20
229.186097
 30
0.0
 11
241.001981
 21
248.34185
 31
0.0
1001
ACAD
1000
RTLwPs
1070
   158
  0
ARC
  5
317
100
AcDbEntity
  8
1AL
100
AcDbCircle
 10
240.001981
 20
219.798592
 30
0.0
 40
1.0
100
AcDbArc
 50
0.0
 51
77.364375
  0
ARC
  5
318
100
AcDbEntity
  8
1AL
100
AcDbCircle
 10
240.001981
 20
215.186097
 30
0.0
 40
1.0
100
AcDbArc
 50
270.0
 51
0.0
  0
ARC
  5
319
100
AcDbEntity
  8
1AL
100
AcDbCircle
 10
240.501981
 20
223.686097
 30
0.0
 40
0.5
100
AcDbArc
 50
180.0
 51
0.0
  0
LINE
  5
31A
100
AcDbEntity
  8
1AL
100
AcDbLine
 10
224.001981
 20
225.186097
 30
0.0
 11
241.001981
 21
225.186097
 31
0.0
  0
LINE
  5
31B
100
AcDbEntity
  8
1BUHIN
100
AcDbLine
 10
231.001981
 20
221.186097
 30
0.0
 11
262.64737
 21
221.186097
 31
0.0
  0
LINE
  5
31C
100
AcDbEntity
  8
1BUHIN
100
AcDbLine
 10
231.001981
 20
223.186097
 30
0.0
 11
262.64737
 21
223.186097
 31
0.0
  0
LINE
  5
31D
100
AcDbEntity
  8
1AL
100
AcDbLine
 10
228.001981
 20
202.786097
 30
0.0
 11
228.001981
 21
213.786097
 31
0.0
  0
LINE
  5
31E
100
AcDbEntity
  8
1AL
100
AcDbLine
 10
229.001981
 20
202.186097
 30
0.0
 11
229.001981
 21
213.686097
 31
0.0
  0
LINE
  5
31F
100
AcDbEntity
  8
1AL
100
AcDbLine
 10
227.001981
 20
217.186097
 30
0.0
 11
227.001981
 21
202.686097
 31
0.0
  0
LINE
  5
320
100
AcDbEntity
  8
1AL
100
AcDbLine
 10
226.001981
 20
214.686097
 30
0.0
 11
226.001981
 21
205.436097
 31
0.0
  0
LINE
  5
321
100
AcDbEntity
  8
1AL
100
AcDbLine
 10
220.001981
 20
209.936097
 30
0.0
 11
220.001981
 21
210.954046
 31
0.0
  0
LINE
  5
322
100
AcDbEntity
  8
1AL
100
AcDbLine
 10
226.001981
 20
205.686097
 30
0.0
 11
226.001981
 21
215.186097
 31
0.0
  0
LINE
  5
323
100
AcDbEntity
  8
ACL
  6
CENTER
100
AcDbLine
 10
223.001981
 20
192.436097
 30
0.0
 11
223.001981
 21
217.526559
 31
0.0
  0
LINE
  5
324
100
AcDbEntity
  8
ACL
  6
CENTER2
100
AcDbLine
 10
210.001981
 20
227.944834
 30
0.0
 11
210.001981
 21
191.876346
 31
0.0
  0
LINE
  5
325
100
AcDbEntity
  8
1AL
100
AcDbLine
 10
226.001981
 20
205.436097
 30
0.0
 11
225.001981
 21
205.436097
 31
0.0
  0
LINE
  5
326
100
AcDbEntity
  8
1AL
100
AcDbLine
 10
226.001981
 20
199.436097
 30
0.0
 11
225.001981
 21
199.436097
 31
0.0
  0
LINE
  5
327
100
AcDbEntity
  8
1AL
100
AcDbLine
 10
225.001981
 20
205.686097
 30
0.0
 11
226.001981
 21
205.686097
 31
0.0
  0
LINE
  5
328
100
AcDbEntity
  8
1AL
100
AcDbLine
 10
225.001981
 20
199.186097
 30
0.0
 11
226.001981
 21
199.186097
 31
0.0
  0
LINE
  5
329
100
AcDbEntity
  8
ACL
  6
CENTER
100
AcDbLine
 10
219.847998
 20
191.186097
 30
0.0
 11
231.909035
 21
191.186097
 31
0.0
  0
LINE
  5
32A
100
AcDbEntity
  8
ACL
  6
CENTER
100
AcDbLine
 10
219.598029
 20
195.686097
 30
0.0
 11
227.847028
 21
195.686097
 31
0.0
  0
LINE
  5
32B
100
AcDbEntity
  8
ACL
  6
CENTER
100
AcDbLine
 10
219.847998
 20
208.186097
 30
0.0
 11
231.909035
 21
208.186097
 31
0.0
  0
LINE
  5
32C
100
AcDbEntity
  8
1AL
100
AcDbLine
 10
225.001981
 20
205.436097
 30
0.0
 11
225.001981
 21
199.436097
 31
0.0
  0
LINE
  5
32D
100
AcDbEntity
  8
1AL
100
AcDbLine
 10
225.001981
 20
199.186097
 30
0.0
 11
225.001981
 21
205.686097
 31
0.0
  0
LINE
  5
32E
100
AcDbEntity
  8
1AL
100
AcDbLine
 10
224.001981
 20
199.402614
 30
0.0
 11
224.001981
 21
205.686097
 31
0.0
  0
ARC
  5
32F
100
AcDbEntity
  8
1AL
100
AcDbCircle
 10
223.501981
 20
199.402614
 30
0.0
 40
0.5
100
AcDbArc
 50
262.337744
 51
0.0
  0
ARC
  5
330
100
AcDbEntity
  8
1AL
100
AcDbCircle
 10
223.001981
 20
195.686097
 30
0.0
 40
3.25
100
AcDbArc
 50
82.337744
 51
133.313866
  0
LINE
  5
331
100
AcDbEntity
  8
1AL
100
AcDbLine
 10
220.001981
 20
192.936097
 30
0.0
 11
220.001981
 21
193.954046
 31
0.0
  0
ARC
  5
332
100
AcDbEntity
  8
1AL
100
AcDbCircle
 10
220.501981
 20
192.936097
 30
0.0
 40
0.5
100
AcDbArc
 50
180.0
 51
270.0
  0
ARC
  5
333
100
AcDbEntity
  8
1AL
100
AcDbCircle
 10
224.001981
 20
191.936097
 30
0.0
 40
0.5
100
AcDbArc
 50
0.0
 51
90.0
  0
ARC
  5
334
100
AcDbEntity
  8
1AL
100
AcDbCircle
 10
224.001981
 20
190.436097
 30
0.0
 40
0.5
100
AcDbArc
 50
270.0
 51
0.0
  0
LINE
  5
335
100
AcDbEntity
  8
1AL
100
AcDbLine
 10
224.501981
 20
190.436097
 30
0.0
 11
224.501981
 21
191.936097
 31
0.0
  0
LINE
  5
336
100
AcDbEntity
  8
1AL
100
AcDbLine
 10
220.626981
 20
189.936097
 30
0.0
 11
224.001981
 21
189.936097
 31
0.0
  0
LINE
  5
337
100
AcDbEntity
  8
1AL
100
AcDbLine
 10
220.501981
 20
192.436097
 30
0.0
 11
224.001981
 21
192.436097
 31
0.0
  0
ARC
  5
338
100
AcDbEntity
  8
1AL
100
AcDbCircle
 10
220.501981
 20
209.936097
 30
0.0
 40
0.5
100
AcDbArc
 50
180.0
 51
270.0
  0
ARC
  5
339
100
AcDbEntity
  8
1AL
100
AcDbCircle
 10
224.001981
 20
208.936097
 30
0.0
 40
0.5
100
AcDbArc
 50
0.0
 51
90.0
  0
LINE
  5
33A
100
AcDbEntity
  8
1AL
100
AcDbLine
 10
220.501981
 20
209.436097
 30
0.0
 11
224.001981
 21
209.436097
 31
0.0
  0
ARC
  5
33B
100
AcDbEntity
  8
1AL
100
AcDbCircle
 10
220.626981
 20
206.311097
 30
0.0
 40
0.625
100
AcDbArc
 50
90.0
 51
270.0
  0
ARC
  5
33C
100
AcDbEntity
  8
1AL
100
AcDbCircle
 10
224.001981
 20
207.436097
 30
0.0
 40
0.5
100
AcDbArc
 50
270.0
 51
0.0
  0
LINE
  5
33D
100
AcDbEntity
  8
1AL
100
AcDbLine
 10
220.626981
 20
205.686097
 30
0.0
 11
224.001981
 21
205.686097
 31
0.0
  0
LINE
  5
33E
100
AcDbEntity
  8
1AL
100
AcDbLine
 10
220.626981
 20
206.936097
 30
0.0
 11
224.001981
 21
206.936097
 31
0.0
  0
LINE
  5
33F
100
AcDbEntity
  8
1AL
100
AcDbLine
 10
224.501981
 20
207.436097
 30
0.0
 11
224.501981
 21
208.936097
 31
0.0
  0
LINE
  5
340
100
AcDbEntity
  8
1AL
100
AcDbLine
 10
226.001981
 20
202.286097
 30
0.0
 11
227.501981
 21
202.286097
 31
0.0
  0
ARC
  5
341
100
AcDbEntity
  8
1AL
100
AcDbCircle
 10
228.001981
 20
202.186097
 30
0.0
 40
1.0
100
AcDbArc
 50
270.0
 51
0.0
  0
LINE
  5
342
100
AcDbEntity
  8
1AL
100
AcDbLine
 10
226.001981
 20
201.186097
 30
0.0
 11
228.001981
 21
201.186097
 31
0.0
  0
LINE
  5
343
100
AcDbEntity
  8
1AL
100
AcDbLine
 10
226.001981
 20
202.286097
 30
0.0
 11
226.001981
 21
201.186097
 31
0.0
  0
ARC
  5
344
100
AcDbEntity
  8
1AL
100
AcDbCircle
 10
227.501981
 20
202.786097
 30
0.0
 40
0.5
100
AcDbArc
 50
270.0
 51
0.0
  0
LINE
  5
345
100
AcDbEntity
  8
1AL
100
AcDbLine
 10
226.001981
 20
201.186097
 30
0.0
 11
227.001981
 21
201.186097
 31
0.0
  0
LINE
  5
346
100
AcDbEntity
  8
1AL
100
AcDbLine
 10
226.001981
 20
202.686097
 30
0.0
 11
227.001981
 21
202.686097
 31
0.0
  0
LINE
  5
347
100
AcDbEntity
  8
1AL
100
AcDbLine
 10
226.001981
 20
202.686097
 30
0.0
 11
226.001981
 21
201.186097
 31
0.0
  0
LINE
  5
348
100
AcDbEntity
  8
1AL
100
AcDbLine
 10
224.501981
 20
218.686097
 30
0.0
 11
225.501981
 21
218.686097
 31
0.0
  0
LINE
  5
349
100
AcDbEntity
  8
1AL
100
AcDbLine
 10
224.501981
 20
216.186097
 30
0.0
 11
226.001981
 21
214.686097
 31
0.0
  0
LINE
  5
34A
100
AcDbEntity
  8
1AL
100
AcDbLine
 10
225.001981
 20
220.186097
 30
0.0
 11
227.001981
 21
220.186097
 31
0.0
  0
LINE
  5
34B
100
AcDbEntity
  8
1AL
100
AcDbLine
 10
225.001981
 20
218.686097
 30
0.0
 11
226.001981
 21
218.686097
 31
0.0
  0
LINE
  5
34C
100
AcDbEntity
  8
1AL
100
AcDbLine
 10
225.001981
 20
216.186097
 30
0.0
 11
226.001981
 21
215.186097
 31
0.0
  0
LINE
  5
34D
100
AcDbEntity
  8
1AL
100
AcDbLine
 10
225.001981
 20
224.186097
 30
0.0
 11
236.501981
 21
224.186097
 31
0.0
  0
LINE
  5
34E
100
AcDbEntity
  8
ACL
  6
CENTER
100
AcDbLine
 10
227.339978
 20
212.686097
 30
0.0
 11
219.09809
 21
212.686097
 31
0.0
  0
LINE
  5
34F
100
AcDbEntity
  8
1AL
100
AcDbLine
 10
214.001981
 20
224.686097
 30
0.0
 11
214.001981
 21
220.186097
 31
0.0
  0
LINE
  5
350
100
AcDbEntity
  8
1AL
100
AcDbLine
 10
213.001981
 20
223.686097
 30
0.0
 11
213.001981
 21
218.686097
 31
0.0
  0
LINE
  5
351
100
AcDbEntity
  8
1AL
100
AcDbLine
 10
225.001981
 20
220.186097
 30
0.0
 11
225.001981
 21
224.186097
 31
0.0
  0
LINE
  5
352
100
AcDbEntity
  8
1AL
100
AcDbLine
 10
224.001981
 20
220.186097
 30
0.0
 11
224.001981
 21
225.186097
 31
0.0
  0
LINE
  5
353
100
AcDbEntity
  8
ALS
100
AcDbLine
 10
215.001981
 20
225.186097
 30
0.0
 11
215.001981
 21
220.186097
 31
0.0
  0
LINE
  5
354
100
AcDbEntity
  8
ALS
100
AcDbLine
 10
223.001981
 20
225.186097
 30
0.0
 11
223.001981
 21
220.186097
 31
0.0
  0
LINE
  5
355
100
AcDbEntity
  8
1AL
100
AcDbLine
 10
224.001981
 20
220.186097
 30
0.0
 11
214.001981
 21
220.186097
 31
0.0
  0
LINE
  5
356
100
AcDbEntity
  8
1AL
100
AcDbLine
 10
224.001981
 20
219.186097
 30
0.0
 11
214.001981
 21
219.186097
 31
0.0
  0
LINE
  5
357
100
AcDbEntity
  8
1AL
100
AcDbLine
 10
214.001981
 20
219.186097
 30
0.0
 11
214.001981
 21
218.686097
 31
0.0
  0
ARC
  5
358
100
AcDbEntity
  8
1AL
100
AcDbCircle
 10
213.501981
 20
218.686097
 30
0.0
 40
0.5
100
AcDbArc
 50
180.0
 51
0.0
  0
LINE
  5
359
100
AcDbEntity
  8
1AL
100
AcDbLine
 10
224.501981
 20
218.686097
 30
0.0
 11
224.501981
 21
216.186097
 31
0.0
  0
ARC
  5
35A
100
AcDbEntity
  8
1AL
100
AcDbCircle
 10
223.501981
 20
216.402614
 30
0.0
 40
0.5
100
AcDbArc
 50
262.337744
 51
0.0
  0
LINE
  5
35B
100
AcDbEntity
  8
1AL
100
AcDbLine
 10
225.001981
 20
216.186097
 30
0.0
 11
225.001981
 21
218.686097
 31
0.0
  0
LINE
  5
35C
100
AcDbEntity
  8
1AL
100
AcDbLine
 10
224.001981
 20
216.402614
 30
0.0
 11
224.001981
 21
219.186097
 31
0.0
  0
ARC
  5
35D
100
AcDbEntity
  8
1AL
100
AcDbCircle
 10
223.001981
 20
212.686097
 30
0.0
 40
3.25
100
AcDbArc
 50
82.337744
 51
133.313866
  0
LINE
  5
35E
100
AcDbEntity
  8
1BUHIN
100
AcDbLine
 10
231.001981
 20
223.186097
 30
0.0
 11
231.001981
 21
221.186097
 31
0.0
  0
LINE
  5
35F
100
AcDbEntity
  8
1AL
100
AcDbLine
 10
239.501981
 20
219.186097
 30
0.0
 11
232.001981
 21
219.186097
 31
0.0
  0
ARC
  5
360
100
AcDbEntity
  8
1AL
100
AcDbCircle
 10
236.501981
 20
204.186097
 30
0.0
 40
17.0
100
AcDbArc
 50
77.364375
 51
105.349477
  0
LINE
  5
361
100
AcDbEntity
  8
1AL
100
AcDbLine
 10
240.001981
 20
214.186097
 30
0.0
 11
229.501981
 21
214.186097
 31
0.0
  0
LINE
  5
362
100
AcDbEntity
  8
1AL
100
AcDbLine
 10
239.501981
 20
215.186097
 30
0.0
 11
228.001981
 21
215.186097
 31
0.0
  0
ARC
  5
363
100
AcDbEntity
  8
1AL
100
AcDbCircle
 10
228.001981
 20
214.486097
 30
0.0
 40
0.7
100
AcDbArc
 50
90.0
 51
270.0
  0
ARC
  5
364
100
AcDbEntity
  8
1AL
100
AcDbCircle
 10
229.501981
 20
213.686097
 30
0.0
 40
0.5
100
AcDbArc
 50
90.0
 51
180.0
  0
LINE
  5
365
100
AcDbEntity
  8
1AL
100
AcDbLine
 10
232.001981
 20
219.186097
 30
0.0
 11
232.001981
 21
220.579693
 31
0.0
  0
LINE
  5
366
100
AcDbEntity
  8
1AL
100
AcDbLine
 10
226.001981
 20
217.186097
 30
0.0
 11
227.001981
 21
217.186097
 31
0.0
  0
LINE
  5
367
100
AcDbEntity
  8
1AL
100
AcDbLine
 10
226.001981
 20
218.186097
 30
0.0
 11
226.001981
 21
217.186097
 31
0.0
  0
ARC
  5
368
100
AcDbEntity
  8
1AL
100
AcDbCircle
 10
225.501981
 20
218.186097
 30
0.0
 40
0.5
100
AcDbArc
 50
0.0
 51
90.0
  0
LINE
  5
369
100
AcDbEntity
  8
1AL
100
AcDbLine
 10
226.701981
 20
217.186097
 30
0.0
 11
227.001981
 21
217.186097
 31
0.0
  0
LINE
  5
36A
100
AcDbEntity
  8
1AL
100
AcDbLine
 10
226.001981
 20
217.886097
 30
0.0
 11
226.001981
 21
218.686097
 31
0.0
  0
ARC
  5
36B
100
AcDbEntity
  8
1AL
100
AcDbCircle
 10
226.701981
 20
217.886097
 30
0.0
 40
0.7
100
AcDbArc
 50
180.0
 51
270.0
  0
LINE
  5
36C
100
AcDbEntity
  8
1AL
100
AcDbLine
 10
227.001981
 20
217.186097
 30
0.0
 11
227.001981
 21
220.186097
 31
0.0
  0
LINE
  5
36D
100
AcDbEntity
  8
1AL
100
AcDbLine
 10
240.001981
 20
215.686097
 30
0.0
 11
240.001981
 21
218.686097
 31
0.0
  0
ARC
  5
36E
100
AcDbEntity
  8
1AL
100
AcDbCircle
 10
239.501981
 20
218.686097
 30
0.0
 40
0.5
100
AcDbArc
 50
0.0
 51
90.0
  0
ARC
  5
36F
100
AcDbEntity
  8
1AL
100
AcDbCircle
 10
239.501981
 20
215.686097
 30
0.0
 40
0.5
100
AcDbArc
 50
270.0
 51
0.0
  0
LINE
  5
370
100
AcDbEntity
  8
1AL
100
AcDbLine
 10
236.501981
 20
223.686097
 30
0.0
 11
236.501981
 21
224.186097
 31
0.0
  0
LINE
  5
371
100
AcDbEntity
  8
1AL
100
AcDbLine
 10
237.501981
 20
223.686097
 30
0.0
 11
237.501981
 21
224.186097
 31
0.0
  0
ARC
  5
372
100
AcDbEntity
  8
1AL
100
AcDbCircle
 10
237.001981
 20
223.686097
 30
0.0
 40
0.5
100
AcDbArc
 50
180.0
 51
0.0
  0
LINE
  5
373
100
AcDbEntity
  8
1AL
100
AcDbLine
 10
240.001981
 20
223.686097
 30
0.0
 11
240.001981
 21
224.186097
 31
0.0
  0
LINE
  5
374
100
AcDbEntity
  8
1AL
100
AcDbLine
 10
237.501981
 20
224.186097
 30
0.0
 11
240.001981
 21
224.186097
 31
0.0
  0
LINE
  5
375
100
AcDbEntity
  8
1AL
100
AcDbLine
 10
241.001981
 20
215.186097
 30
0.0
 11
241.001981
 21
219.798592
 31
0.0
  0
POINT
  5
376
100
AcDbEntity
  8
DEFPOINTS
 62
     0
100
AcDbPoint
 10
241.001981
 20
225.186097
 30
0.0
  0
LINE
  5
377
100
AcDbEntity
  8
1AL
100
AcDbLine
 10
241.001981
 20
223.686097
 30
0.0
 11
241.001981
 21
225.186097
 31
0.0
  0
ARC
  5
378
100
AcDbEntity
  8
AHJ
  6
BYBLOCK
 62
     0
100
AcDbCircle
 10
241.001981
 20
245.94185
 30
0.0
 40
0.5
100
AcDbArc
 50
180.0
 51
0.0
  0
ARC
  5
379
100
AcDbEntity
  8
AHJ
  6
BYBLOCK
 62
     0
100
AcDbCircle
 10
241.001981
 20
245.94185
 30
0.0
 40
0.5
100
AcDbArc
 50
0.0
 51
180.0
  0
LINE
  5
37A
100
AcDbEntity
  8
AHJ
  6
BYBLOCK
 62
     0
100
AcDbLine
 10
242.001981
 20
245.94185
 30
0.0
 11
243.001981
 21
245.94185
 31
0.0
  0
LINE
  5
37B
100
AcDbEntity
  8
1AL
100
AcDbLine
 10
304.792759
 20
199.436097
 30
0.0
 11
304.792759
 21
188.186097
 31
0.0
  0
LINE
  5
37C
100
AcDbEntity
  8
1AL
100
AcDbLine
 10
303.792759
 20
201.186097
 30
0.0
 11
303.792759
 21
186.686097
 31
0.0
  0
ARC
  5
37D
100
AcDbEntity
  8
1AL
100
AcDbCircle
 10
310.167759
 20
189.311097
 30
0.0
 40
0.625
100
AcDbArc
 50
270.0
 51
90.0
  0
LINE
  5
37E
100
AcDbEntity
  8
1AL
100
AcDbLine
 10
304.792759
 20
188.686097
 30
0.0
 11
304.792759
 21
199.186097
 31
0.0
  0
LINE
  5
37F
100
AcDbEntity
  8
ALS
100
AcDbLine
 10
311.292759
 20
218.186097
 30
0.0
 11
311.292759
 21
183.186097
 31
0.0
  0
LINE
  5
380
100
AcDbEntity
  8
ALS
100
AcDbLine
 10
353.792759
 20
218.186097
 30
0.0
 11
313.792759
 21
128.186097
 31
0.0
  0
LINE
  5
381
100
AcDbEntity
  8
ALS
100
AcDbLine
 10
313.792759
 20
218.186097
 30
0.0
 11
353.792759
 21
128.186097
 31
0.0
  0
LINE
  5
382
100
AcDbEntity
  8
1MOKU
100
AcDbLine
 10
353.792759
 20
218.186097
 30
0.0
 11
353.792759
 21
128.186097
 31
0.0
  0
LINE
  5
383
100
AcDbEntity
  8
1MOKU
100
AcDbLine
 10
313.792759
 20
218.186097
 30
0.0
 11
313.792759
 21
128.186097
 31
0.0
  0
LINE
  5
384
100
AcDbEntity
  8
ACL
  6
CENTER2
100
AcDbLine
 10
333.792759
 20
237.945291
 30
0.0
 11
333.792759
 21
121.134003
 31
0.0
  0
LINE
  5
385
100
AcDbEntity
  8
1MOKU
100
AcDbLine
 10
353.792759
 20
128.186097
 30
0.0
 11
313.792759
 21
128.186097
 31
0.0
  0
LINE
  5
386
100
AcDbEntity
  8
ADM
 62
     0
100
AcDbLine
 10
311.292759
 20
179.186097
 30
0.0
 11
311.292759
 21
103.290066
 31
0.0
1001
ACAD
1000
RTLwPs
1070
   158
  0
LINE
  5
387
100
AcDbEntity
  8
AHJ
  6
BYBLOCK
 62
     0
100
AcDbLine
 10
310.292759
 20
105.690066
 30
0.0
 11
309.292759
 21
105.690066
 31
0.0
  0
ARC
  5
388
100
AcDbEntity
  8
AHJ
  6
BYBLOCK
 62
     0
100
AcDbCircle
 10
311.292759
 20
105.690066
 30
0.0
 40
0.5
100
AcDbArc
 50
0.0
 51
180.0
  0
ARC
  5
389
100
AcDbEntity
  8
AHJ
  6
BYBLOCK
 62
     0
100
AcDbCircle
 10
311.292759
 20
105.690066
 30
0.0
 40
0.5
100
AcDbArc
 50
180.0
 51
0.0
  0
POINT
  5
38A
100
AcDbEntity
  8
DEFPOINTS
 62
     0
100
AcDbPoint
 10
311.292759
 20
105.690066
 30
0.0
  0
POINT
  5
38B
100
AcDbEntity
  8
DEFPOINTS
 62
     0
100
AcDbPoint
 10
313.792759
 20
128.186097
 30
0.0
  0
LINE
  5
38C
100
AcDbEntity
  8
1AL
100
AcDbLine
 10
310.167759
 20
188.686097
 30
0.0
 11
306.792759
 21
188.686097
 31
0.0
  0
LINE
  5
38D
100
AcDbEntity
  8
1AL
100
AcDbLine
 10
304.792759
 20
188.186097
 30
0.0
 11
305.792759
 21
188.186097
 31
0.0
  0
LINE
  5
38E
100
AcDbEntity
  8
1AL
100
AcDbLine
 10
307.792759
 20
183.186097
 30
0.0
 11
307.792759
 21
184.686097
 31
0.0
  0
LINE
  5
38F
100
AcDbEntity
  8
1AL
100
AcDbLine
 10
306.792759
 20
185.186097
 30
0.0
 11
306.792759
 21
184.186097
 31
0.0
  0
LINE
  5
390
100
AcDbEntity
  8
1AL
100
AcDbLine
 10
305.792759
 20
184.186097
 30
0.0
 11
306.792759
 21
184.186097
 31
0.0
  0
LINE
  5
391
100
AcDbEntity
  8
1AL
100
AcDbLine
 10
306.792759
 20
185.186097
 30
0.0
 11
307.292759
 21
185.186097
 31
0.0
  0
ARC
  5
392
100
AcDbEntity
  8
1AL
100
AcDbCircle
 10
307.292759
 20
184.686097
 30
0.0
 40
0.5
100
AcDbArc
 50
0.0
 51
90.0
  0
LINE
  5
393
100
AcDbEntity
  8
1AL
100
AcDbLine
 10
304.792759
 20
186.686097
 30
0.0
 11
304.792759
 21
185.186097
 31
0.0
  0
LINE
  5
394
100
AcDbEntity
  8
1AL
100
AcDbLine
 10
303.792759
 20
185.186097
 30
0.0
 11
304.792759
 21
185.186097
 31
0.0
  0
LINE
  5
395
100
AcDbEntity
  8
1AL
100
AcDbLine
 10
303.792759
 20
186.686097
 30
0.0
 11
304.792759
 21
186.686097
 31
0.0
  0
LINE
  5
396
100
AcDbEntity
  8
1AL
100
AcDbLine
 10
303.792759
 20
185.186097
 30
0.0
 11
303.792759
 21
183.186097
 31
0.0
  0
LINE
  5
397
100
AcDbEntity
  8
1AL
100
AcDbLine
 10
303.792759
 20
183.186097
 30
0.0
 11
307.792759
 21
183.186097
 31
0.0
  0
LINE
  5
398
100
AcDbEntity
  8
1AL
100
AcDbLine
 10
305.792759
 20
188.186097
 30
0.0
 11
305.792759
 21
184.186097
 31
0.0
  0
LINE
  5
399
100
AcDbEntity
  8
1AL
100
AcDbLine
 10
305.792759
 20
185.186097
 30
0.0
 11
305.792759
 21
188.686097
 31
0.0
  0
LINE
  5
39A
100
AcDbEntity
  8
1AL
100
AcDbLine
 10
305.792759
 20
188.686097
 30
0.0
 11
304.792759
 21
188.686097
 31
0.0
  0
LINE
  5
39B
100
AcDbEntity
  8
1AL
100
AcDbLine
 10
306.792759
 20
184.186097
 30
0.0
 11
306.792759
 21
184.186097
 31
0.0
  0
LINE
  5
39C
100
AcDbEntity
  8
1AL
100
AcDbLine
 10
306.792759
 20
184.186097
 30
0.0
 11
306.792759
 21
188.686097
 31
0.0
  0
ARC
  5
39D
100
AcDbEntity
  8
1AL
100
AcDbCircle
 10
306.792759
 20
185.186097
 30
0.0
 40
1.0
100
AcDbArc
 50
180.0
 51
270.0
  0
POINT
  5
39E
100
AcDbEntity
  8
DEFPOINTS
 62
     0
100
AcDbPoint
 10
311.292759
 20
183.186097
 30
0.0
  0
POINT
  5
39F
100
AcDbEntity
  8
DEFPOINTS
 62
     0
100
AcDbPoint
 10
311.292759
 20
183.186097
 30
0.0
  0
ARC
  5
3A0
100
AcDbEntity
  8
1GASKET
100
AcDbCircle
 10
327.267568
 20
234.016707
 30
0.0
 40
9.446446
100
AcDbArc
 50
261.018055
 51
313.689994
  0
LINE
  5
3A1
100
AcDbEntity
  8
1GASKET
100
AcDbLine
 10
325.792759
 20
218.186097
 30
0.0
 11
333.792759
 21
218.186097
 31
0.0
  0
LINE
  5
3A2
100
AcDbEntity
  8
1BUHIN
  6
HIDDEN
 48
0.5
100
AcDbLine
 10
333.792759
 20
228.229751
 30
0.0
 11
325.531
 21
226.133727
 31
0.0
  0
LINE
  5
3A3
100
AcDbEntity
  8
1BUHIN
  6
HIDDEN
 48
0.5
100
AcDbLine
 10
333.792759
 20
227.640752
 30
0.0
 11
325.531
 21
225.544728
 31
0.0
  0
LINE
  5
3A4
100
AcDbEntity
  8
1MOKU
100
AcDbLine
 10
313.792759
 20
218.186097
 30
0.0
 11
355.292759
 21
218.186097
 31
0.0
  0
LINE
  5
3A5
100
AcDbEntity
  8
1MOKU
100
AcDbLine
 10
331.292759
 20
218.186097
 30
0.0
 11
369.67719
 21
218.186097
 31
0.0
  0
LINE
  5
3A6
100
AcDbEntity
  8
ADM
 62
     0
100
AcDbLine
 10
289.792759
 20
229.186097
 30
0.0
 11
289.792759
 21
248.34185
 31
0.0
1001
ACAD
1000
RTLwPs
1070
   158
  0
LINE
  5
3A7
100
AcDbEntity
  8
1AL
100
AcDbLine
 10
291.292759
 20
215.186097
 30
0.0
 11
302.792759
 21
215.186097
 31
0.0
  0
ARC
  5
3A8
100
AcDbEntity
  8
1AL
100
AcDbCircle
 10
302.792759
 20
202.186097
 30
0.0
 40
1.0
100
AcDbArc
 50
180.0
 51
270.0
  0
LINE
  5
3A9
100
AcDbEntity
  8
1AL
100
AcDbLine
 10
306.792759
 20
225.186097
 30
0.0
 11
289.792759
 21
225.186097
 31
0.0
  0
LINE
  5
3AA
100
AcDbEntity
  8
1AL
100
AcDbLine
 10
305.792759
 20
224.186097
 30
0.0
 11
294.292759
 21
224.186097
 31
0.0
  0
LINE
  5
3AB
100
AcDbEntity
  8
ACL
  6
CENTER
100
AcDbLine
 10
310.946742
 20
191.186097
 30
0.0
 11
298.885705
 21
191.186097
 31
0.0
  0
LINE
  5
3AC
100
AcDbEntity
  8
ACL
  6
CENTER
100
AcDbLine
 10
310.946742
 20
208.186097
 30
0.0
 11
298.885705
 21
208.186097
 31
0.0
  0
LINE
  5
3AD
100
AcDbEntity
  8
1AL
100
AcDbLine
 10
301.792759
 20
202.186097
 30
0.0
 11
301.792759
 21
213.686097
 31
0.0
  0
LINE
  5
3AE
100
AcDbEntity
  8
1BUHIN
100
AcDbLine
 10
299.792759
 20
223.186097
 30
0.0
 11
299.792759
 21
221.186097
 31
0.0
  0
LINE
  5
3AF
100
AcDbEntity
  8
1AL
100
AcDbLine
 10
291.292759
 20
219.186097
 30
0.0
 11
298.792759
 21
219.186097
 31
0.0
  0
ARC
  5
3B0
100
AcDbEntity
  8
1AL
100
AcDbCircle
 10
294.292759
 20
204.186097
 30
0.0
 40
17.0
100
AcDbArc
 50
74.650523
 51
102.635625
  0
LINE
  5
3B1
100
AcDbEntity
  8
1AL
100
AcDbLine
 10
290.792759
 20
214.186097
 30
0.0
 11
301.292759
 21
214.186097
 31
0.0
  0
ARC
  5
3B2
100
AcDbEntity
  8
1AL
100
AcDbCircle
 10
290.792759
 20
219.798592
 30
0.0
 40
1.0
100
AcDbArc
 50
102.635625
 51
180.0
  0
LINE
  5
3B3
100
AcDbEntity
  8
1AL
100
AcDbLine
 10
290.792759
 20
215.686097
 30
0.0
 11
290.792759
 21
218.686097
 31
0.0
  0
ARC
  5
3B4
100
AcDbEntity
  8
1AL
100
AcDbCircle
 10
291.292759
 20
218.686097
 30
0.0
 40
0.5
100
AcDbArc
 50
90.0
 51
180.0
  0
ARC
  5
3B5
100
AcDbEntity
  8
1AL
100
AcDbCircle
 10
291.292759
 20
215.686097
 30
0.0
 40
0.5
100
AcDbArc
 50
180.0
 51
270.0
  0
ARC
  5
3B6
100
AcDbEntity
  8
1AL
100
AcDbCircle
 10
290.792759
 20
215.186097
 30
0.0
 40
1.0
100
AcDbArc
 50
180.0
 51
270.0
  0
LINE
  5
3B7
100
AcDbEntity
  8
1AL
100
AcDbLine
 10
289.792759
 20
215.186097
 30
0.0
 11
289.792759
 21
219.798592
 31
0.0
  0
ARC
  5
3B8
100
AcDbEntity
  8
1AL
100
AcDbCircle
 10
301.292759
 20
213.686097
 30
0.0
 40
0.5
100
AcDbArc
 50
0.0
 51
90.0
  0
LINE
  5
3B9
100
AcDbEntity
  8
1AL
100
AcDbLine
 10
298.792759
 20
219.186097
 30
0.0
 11
298.792759
 21
220.579693
 31
0.0
  0
POINT
  5
3BA
100
AcDbEntity
  8
DEFPOINTS
 62
     0
100
AcDbPoint
 10
289.792759
 20
225.186097
 30
0.0
  0
LINE
  5
3BB
100
AcDbEntity
  8
1AL
100
AcDbLine
 10
294.292759
 20
223.686097
 30
0.0
 11
294.292759
 21
224.186097
 31
0.0
  0
LINE
  5
3BC
100
AcDbEntity
  8
1AL
100
AcDbLine
 10
293.292759
 20
223.686097
 30
0.0
 11
293.292759
 21
224.186097
 31
0.0
  0
ARC
  5
3BD
100
AcDbEntity
  8
1AL
100
AcDbCircle
 10
293.792759
 20
223.686097
 30
0.0
 40
0.5
100
AcDbArc
 50
180.0
 51
360.0
  0
LINE
  5
3BE
100
AcDbEntity
  8
1AL
100
AcDbLine
 10
289.792759
 20
223.686097
 30
0.0
 11
289.792759
 21
225.186097
 31
0.0
  0
LINE
  5
3BF
100
AcDbEntity
  8
1AL
100
AcDbLine
 10
290.792759
 20
223.686097
 30
0.0
 11
290.792759
 21
224.186097
 31
0.0
  0
ARC
  5
3C0
100
AcDbEntity
  8
1AL
100
AcDbCircle
 10
290.292759
 20
223.686097
 30
0.0
 40
0.5
100
AcDbArc
 50
180.0
 51
360.0
  0
LINE
  5
3C1
100
AcDbEntity
  8
1AL
100
AcDbLine
 10
293.292759
 20
224.186097
 30
0.0
 11
290.792759
 21
224.186097
 31
0.0
  0
LINE
  5
3C2
100
AcDbEntity
  8
1AL
100
AcDbLine
 10
302.792759
 20
202.786097
 30
0.0
 11
302.792759
 21
213.786097
 31
0.0
  0
LINE
  5
3C3
100
AcDbEntity
  8
1AL
100
AcDbLine
 10
303.792759
 20
217.186097
 30
0.0
 11
303.792759
 21
202.686097
 31
0.0
  0
LINE
  5
3C4
100
AcDbEntity
  8
1AL
100
AcDbLine
 10
304.792759
 20
214.686097
 30
0.0
 11
304.792759
 21
205.436097
 31
0.0
  0
LINE
  5
3C5
100
AcDbEntity
  8
1AL
100
AcDbLine
 10
310.792759
 20
209.936097
 30
0.0
 11
310.792759
 21
210.954046
 31
0.0
  0
LINE
  5
3C6
100
AcDbEntity
  8
1AL
100
AcDbLine
 10
304.792759
 20
205.686097
 30
0.0
 11
304.792759
 21
215.186097
 31
0.0
  0
LINE
  5
3C7
100
AcDbEntity
  8
ACL
  6
CENTER
100
AcDbLine
 10
307.792759
 20
192.436097
 30
0.0
 11
307.792759
 21
217.526559
 31
0.0
  0
LINE
  5
3C8
100
AcDbEntity
  8
ACL
  6
CENTER2
100
AcDbLine
 10
320.792759
 20
227.944834
 30
0.0
 11
320.792759
 21
191.876346
 31
0.0
  0
LINE
  5
3C9
100
AcDbEntity
  8
1AL
100
AcDbLine
 10
305.792759
 20
205.436097
 30
0.0
 11
305.792759
 21
199.436097
 31
0.0
  0
LINE
  5
3CA
100
AcDbEntity
  8
1AL
100
AcDbLine
 10
305.792759
 20
199.186097
 30
0.0
 11
305.792759
 21
205.686097
 31
0.0
  0
LINE
  5
3CB
100
AcDbEntity
  8
1AL
100
AcDbLine
 10
306.792759
 20
199.402614
 30
0.0
 11
306.792759
 21
205.686097
 31
0.0
  0
LINE
  5
3CC
100
AcDbEntity
  8
1AL
100
AcDbLine
 10
310.167759
 20
189.936097
 30
0.0
 11
306.792759
 21
189.936097
 31
0.0
  0
LINE
  5
3CD
100
AcDbEntity
  8
1AL
100
AcDbLine
 10
310.292759
 20
192.436097
 30
0.0
 11
306.792759
 21
192.436097
 31
0.0
  0
LINE
  5
3CE
100
AcDbEntity
  8
ACL
  6
CENTER
100
AcDbLine
 10
311.19671
 20
195.686097
 30
0.0
 11
302.947712
 21
195.686097
 31
0.0
  0
LINE
  5
3CF
100
AcDbEntity
  8
1AL
100
AcDbLine
 10
304.792759
 20
199.436097
 30
0.0
 11
305.792759
 21
199.436097
 31
0.0
  0
LINE
  5
3D0
100
AcDbEntity
  8
1AL
100
AcDbLine
 10
305.792759
 20
199.186097
 30
0.0
 11
304.792759
 21
199.186097
 31
0.0
  0
ARC
  5
3D1
100
AcDbEntity
  8
1AL
100
AcDbCircle
 10
307.292759
 20
199.402614
 30
0.0
 40
0.5
100
AcDbArc
 50
180.0
 51
277.662256
  0
ARC
  5
3D2
100
AcDbEntity
  8
1AL
100
AcDbCircle
 10
307.792759
 20
195.686097
 30
0.0
 40
3.25
100
AcDbArc
 50
46.686134
 51
97.662256
  0
ARC
  5
3D3
100
AcDbEntity
  8
1AL
100
AcDbCircle
 10
306.792759
 20
191.936097
 30
0.0
 40
0.5
100
AcDbArc
 50
90.0
 51
180.0
  0
ARC
  5
3D4
100
AcDbEntity
  8
1AL
100
AcDbCircle
 10
306.792759
 20
190.436097
 30
0.0
 40
0.5
100
AcDbArc
 50
180.0
 51
270.0
  0
LINE
  5
3D5
100
AcDbEntity
  8
1AL
100
AcDbLine
 10
306.292759
 20
190.436097
 30
0.0
 11
306.292759
 21
191.936097
 31
0.0
  0
LINE
  5
3D6
100
AcDbEntity
  8
1AL
100
AcDbLine
 10
310.792759
 20
192.936097
 30
0.0
 11
310.792759
 21
193.954046
 31
0.0
  0
ARC
  5
3D7
100
AcDbEntity
  8
1AL
100
AcDbCircle
 10
310.292759
 20
192.936097
 30
0.0
 40
0.5
100
AcDbArc
 50
270.0
 51
360.0
  0
LINE
  5
3D8
100
AcDbEntity
  8
1AL
100
AcDbLine
 10
310.292759
 20
209.436097
 30
0.0
 11
306.792759
 21
209.436097
 31
0.0
  0
LINE
  5
3D9
100
AcDbEntity
  8
1AL
100
AcDbLine
 10
310.167759
 20
205.686097
 30
0.0
 11
306.792759
 21
205.686097
 31
0.0
  0
LINE
  5
3DA
100
AcDbEntity
  8
1AL
100
AcDbLine
 10
310.167759
 20
206.936097
 30
0.0
 11
306.792759
 21
206.936097
 31
0.0
  0
LINE
  5
3DB
100
AcDbEntity
  8
1AL
100
AcDbLine
 10
304.792759
 20
202.286097
 30
0.0
 11
303.292759
 21
202.286097
 31
0.0
  0
LINE
  5
3DC
100
AcDbEntity
  8
1AL
100
AcDbLine
 10
304.792759
 20
201.186097
 30
0.0
 11
302.792759
 21
201.186097
 31
0.0
  0
LINE
  5
3DD
100
AcDbEntity
  8
1AL
100
AcDbLine
 10
304.792759
 20
202.286097
 30
0.0
 11
304.792759
 21
201.186097
 31
0.0
  0
ARC
  5
3DE
100
AcDbEntity
  8
1AL
100
AcDbCircle
 10
303.292759
 20
202.786097
 30
0.0
 40
0.5
100
AcDbArc
 50
180.0
 51
270.0
  0
LINE
  5
3DF
100
AcDbEntity
  8
1AL
100
AcDbLine
 10
304.792759
 20
205.436097
 30
0.0
 11
305.792759
 21
205.436097
 31
0.0
  0
LINE
  5
3E0
100
AcDbEntity
  8
1AL
100
AcDbLine
 10
304.792759
 20
201.186097
 30
0.0
 11
303.792759
 21
201.186097
 31
0.0
  0
LINE
  5
3E1
100
AcDbEntity
  8
1AL
100
AcDbLine
 10
304.792759
 20
202.686097
 30
0.0
 11
303.792759
 21
202.686097
 31
0.0
  0
LINE
  5
3E2
100
AcDbEntity
  8
1AL
100
AcDbLine
 10
304.792759
 20
202.686097
 30
0.0
 11
304.792759
 21
201.186097
 31
0.0
  0
ARC
  5
3E3
100
AcDbEntity
  8
1AL
100
AcDbCircle
 10
306.792759
 20
208.936097
 30
0.0
 40
0.5
100
AcDbArc
 50
90.0
 51
180.0
  0
ARC
  5
3E4
100
AcDbEntity
  8
1AL
100
AcDbCircle
 10
306.792759
 20
207.436097
 30
0.0
 40
0.5
100
AcDbArc
 50
180.0
 51
270.0
  0
LINE
  5
3E5
100
AcDbEntity
  8
1AL
100
AcDbLine
 10
305.792759
 20
205.686097
 30
0.0
 11
304.792759
 21
205.686097
 31
0.0
  0
LINE
  5
3E6
100
AcDbEntity
  8
1AL
100
AcDbLine
 10
306.292759
 20
207.436097
 30
0.0
 11
306.292759
 21
208.936097
 31
0.0
  0
ARC
  5
3E7
100
AcDbEntity
  8
1AL
100
AcDbCircle
 10
310.292759
 20
209.936097
 30
0.0
 40
0.5
100
AcDbArc
 50
270.0
 51
360.0
  0
ARC
  5
3E8
100
AcDbEntity
  8
1AL
100
AcDbCircle
 10
310.167759
 20
206.311097
 30
0.0
 40
0.625
100
AcDbArc
 50
270.0
 51
90.0
  0
LINE
  5
3E9
100
AcDbEntity
  8
1AL
100
AcDbLine
 10
316.792759
 20
224.686097
 30
0.0
 11
324.792759
 21
224.686097
 31
0.0
  0
LINE
  5
3EA
100
AcDbEntity
  8
1AL
100
AcDbLine
 10
317.792759
 20
223.686097
 30
0.0
 11
324.792759
 21
223.686097
 31
0.0
  0
LINE
  5
3EB
100
AcDbEntity
  8
1BUHIN
  6
HIDDEN
 48
0.5
100
AcDbLine
 10
325.531
 20
226.133727
 30
0.0
 11
315.762163
 21
226.133727
 31
0.0
  0
LINE
  5
3EC
100
AcDbEntity
  8
1BUHIN
  6
HIDDEN
 48
0.5
100
AcDbLine
 10
325.531
 20
225.544728
 30
0.0
 11
315.762163
 21
225.544728
 31
0.0
  0
LINE
  5
3ED
100
AcDbEntity
  8
ALS
100
AcDbLine
 10
315.792759
 20
225.186097
 30
0.0
 11
325.792759
 21
225.186097
 31
0.0
  0
LINE
  5
3EE
100
AcDbEntity
  8
1AL
100
AcDbLine
 10
316.792759
 20
224.686097
 30
0.0
 11
316.792759
 21
220.186097
 31
0.0
  0
LINE
  5
3EF
100
AcDbEntity
  8
1AL
100
AcDbLine
 10
317.792759
 20
223.686097
 30
0.0
 11
317.792759
 21
218.686097
 31
0.0
  0
LINE
  5
3F0
100
AcDbEntity
  8
1AL
100
AcDbLine
 10
305.792759
 20
220.186097
 30
0.0
 11
305.792759
 21
224.186097
 31
0.0
  0
LINE
  5
3F1
100
AcDbEntity
  8
1AL
100
AcDbLine
 10
306.792759
 20
220.186097
 30
0.0
 11
306.792759
 21
225.186097
 31
0.0
  0
LINE
  5
3F2
100
AcDbEntity
  8
ALS
100
AcDbLine
 10
307.792759
 20
225.186097
 30
0.0
 11
307.792759
 21
220.186097
 31
0.0
  0
LINE
  5
3F3
100
AcDbEntity
  8
ALS
100
AcDbLine
 10
315.792759
 20
225.186097
 30
0.0
 11
315.792759
 21
220.186097
 31
0.0
  0
LINE
  5
3F4
100
AcDbEntity
  8
1AL
100
AcDbLine
 10
306.792759
 20
220.186097
 30
0.0
 11
316.792759
 21
220.186097
 31
0.0
  0
LINE
  5
3F5
100
AcDbEntity
  8
1AL
100
AcDbLine
 10
306.792759
 20
219.186097
 30
0.0
 11
316.792759
 21
219.186097
 31
0.0
  0
LINE
  5
3F6
100
AcDbEntity
  8
ACL
  6
CENTER
100
AcDbLine
 10
303.454762
 20
212.686097
 30
0.0
 11
311.69665
 21
212.686097
 31
0.0
  0
ARC
  5
3F7
100
AcDbEntity
  8
1AL
100
AcDbCircle
 10
302.792759
 20
214.486097
 30
0.0
 40
0.7
100
AcDbArc
 50
270.0
 51
90.0
  0
LINE
  5
3F8
100
AcDbEntity
  8
1AL
100
AcDbLine
 10
306.292759
 20
218.686097
 30
0.0
 11
305.292759
 21
218.686097
 31
0.0
  0
LINE
  5
3F9
100
AcDbEntity
  8
1AL
100
AcDbLine
 10
306.292759
 20
218.686097
 30
0.0
 11
306.292759
 21
216.186097
 31
0.0
  0
LINE
  5
3FA
100
AcDbEntity
  8
1AL
100
AcDbLine
 10
304.792759
 20
217.186097
 30
0.0
 11
303.792759
 21
217.186097
 31
0.0
  0
LINE
  5
3FB
100
AcDbEntity
  8
1AL
100
AcDbLine
 10
304.792759
 20
218.186097
 30
0.0
 11
304.792759
 21
217.186097
 31
0.0
  0
ARC
  5
3FC
100
AcDbEntity
  8
1AL
100
AcDbCircle
 10
305.292759
 20
218.186097
 30
0.0
 40
0.5
100
AcDbArc
 50
90.0
 51
180.0
  0
LINE
  5
3FD
100
AcDbEntity
  8
1AL
100
AcDbLine
 10
306.292759
 20
216.186097
 30
0.0
 11
304.792759
 21
214.686097
 31
0.0
  0
LINE
  5
3FE
100
AcDbEntity
  8
1AL
100
AcDbLine
 10
305.792759
 20
220.186097
 30
0.0
 11
303.792759
 21
220.186097
 31
0.0
  0
LINE
  5
3FF
100
AcDbEntity
  8
1AL
100
AcDbLine
 10
304.092759
 20
217.186097
 30
0.0
 11
303.792759
 21
217.186097
 31
0.0
  0
LINE
  5
400
100
AcDbEntity
  8
1AL
100
AcDbLine
 10
304.792759
 20
217.886097
 30
0.0
 11
304.792759
 21
218.686097
 31
0.0
  0
LINE
  5
401
100
AcDbEntity
  8
1AL
100
AcDbLine
 10
305.792759
 20
218.686097
 30
0.0
 11
304.792759
 21
218.686097
 31
0.0
  0
ARC
  5
402
100
AcDbEntity
  8
1AL
100
AcDbCircle
 10
304.092759
 20
217.886097
 30
0.0
 40
0.7
100
AcDbArc
 50
270.0
 51
360.0
  0
ARC
  5
403
100
AcDbEntity
  8
1AL
100
AcDbCircle
 10
307.292759
 20
216.402614
 30
0.0
 40
0.5
100
AcDbArc
 50
180.0
 51
277.662256
  0
LINE
  5
404
100
AcDbEntity
  8
1AL
100
AcDbLine
 10
305.792759
 20
216.186097
 30
0.0
 11
305.792759
 21
218.686097
 31
0.0
  0
LINE
  5
405
100
AcDbEntity
  8
1AL
100
AcDbLine
 10
306.792759
 20
216.402614
 30
0.0
 11
306.792759
 21
219.186097
 31
0.0
  0
LINE
  5
406
100
AcDbEntity
  8
1AL
100
AcDbLine
 10
305.792759
 20
216.186097
 30
0.0
 11
304.792759
 21
215.186097
 31
0.0
  0
ARC
  5
407
100
AcDbEntity
  8
1AL
100
AcDbCircle
 10
307.792759
 20
212.686097
 30
0.0
 40
3.25
100
AcDbArc
 50
46.686134
 51
97.662256
  0
LINE
  5
408
100
AcDbEntity
  8
1AL
100
AcDbLine
 10
303.792759
 20
217.186097
 30
0.0
 11
303.792759
 21
220.186097
 31
0.0
  0
LINE
  5
409
100
AcDbEntity
  8
1AL
100
AcDbLine
 10
316.792759
 20
219.186097
 30
0.0
 11
316.792759
 21
218.686097
 31
0.0
  0
ARC
  5
40A
100
AcDbEntity
  8
1AL
100
AcDbCircle
 10
317.292759
 20
218.686097
 30
0.0
 40
0.5
100
AcDbArc
 50
180.0
 51
360.0
  0
LINE
  5
40B
100
AcDbEntity
  8
ALS
100
AcDbLine
 10
311.292759
 20
218.186097
 30
0.0
 11
313.792759
 21
218.186097
 31
0.0
  0
LINE
  5
40C
100
AcDbEntity
  8
1GASKET
100
AcDbLine
 10
325.792759
 20
224.686097
 30
0.0
 11
325.792759
 21
218.186097
 31
0.0
  0
LINE
  5
40D
100
AcDbEntity
  8
1AL
100
AcDbLine
 10
325.792759
 20
224.686097
 30
0.0
 11
325.792759
 21
218.686097
 31
0.0
  0
LINE
  5
40E
100
AcDbEntity
  8
1AL
100
AcDbLine
 10
324.792759
 20
223.686097
 30
0.0
 11
324.792759
 21
218.686097
 31
0.0
  0
LINE
  5
40F
100
AcDbEntity
  8
ALS
100
AcDbLine
 10
325.792759
 20
228.186097
 30
0.0
 11
325.792759
 21
218.186097
 31
0.0
  0
ARC
  5
410
100
AcDbEntity
  8
1AL
100
AcDbCircle
 10
325.292759
 20
218.686097
 30
0.0
 40
0.5
100
AcDbArc
 50
180.0
 51
360.0
  0
ARC
  5
411
100
AcDbEntity
  8
1AL
100
AcDbCircle
 10
325.292759
 20
224.686097
 30
0.0
 40
0.5
100
AcDbArc
 50
360.0
 51
180.0
  0
ARC
  5
412
100
AcDbEntity
  8
AHJ
  6
BYBLOCK
 62
     0
100
AcDbCircle
 10
289.792759
 20
245.94185
 30
0.0
 40
0.5
100
AcDbArc
 50
0.0
 51
180.0
  0
ARC
  5
413
100
AcDbEntity
  8
AHJ
  6
BYBLOCK
 62
     0
100
AcDbCircle
 10
289.792759
 20
245.94185
 30
0.0
 40
0.5
100
AcDbArc
 50
180.0
 51
0.0
  0
LINE
  5
414
100
AcDbEntity
  8
AHJ
  6
BYBLOCK
 62
     0
100
AcDbLine
 10
288.792759
 20
245.94185
 30
0.0
 11
287.792759
 21
245.94185
 31
0.0
  0
POINT
  5
415
100
AcDbEntity
  8
DEFPOINTS
 62
     0
100
AcDbPoint
 10
289.792759
 20
245.94185
 30
0.0
  0
LINE
  5
416
100
AcDbEntity
  8
ACL
  6
CENTER2
100
AcDbLine
 10
369.67719
 20
234.359827
 30
0.0
 11
369.67719
 21
203.464752
 31
0.0
  0
LINE
  5
417
100
AcDbEntity
  8
1BUHIN
  6
HIDDEN
 48
0.5
100
AcDbLine
 10
369.67719
 20
228.229751
 30
0.0
 11
333.792759
 21
228.229751
 31
0.0
  0
LINE
  5
418
100
AcDbEntity
  8
1MOKU
100
AcDbLine
 10
333.792759
 20
227.186097
 30
0.0
 11
369.67719
 21
227.186097
 31
0.0
  0
LINE
  5
419
100
AcDbEntity
  8
1BUHIN
  6
HIDDEN
 48
0.5
100
AcDbLine
 10
352.134876
 20
227.640752
 30
0.0
 11
333.792759
 21
227.640752
 31
0.0
  0
LINE
  5
41A
100
AcDbEntity
  8
1GASKET
100
AcDbLine
 10
333.792759
 20
218.186097
 30
0.0
 11
333.792759
 21
227.186097
 31
0.0
  0
TEXT
  5
41B
100
AcDbEntity
  8
0
 62
     0
100
AcDbText
 10
394.071747
 20
194.971811
 30
0.0
 40
6.0
  1
35
 50
90.0
100
AcDbText
1001
ACAD
1000
MTEXTBEGIN
1070
    73
1070
     1
1070
    44
1040
1.0
1070
    74
1070
     0
1000
MTEXTEND
  0
POINT
  5
41C
100
AcDbEntity
  8
DEFPOINTS
 62
     0
100
AcDbPoint
 10
369.67719
 20
218.186097
 30
0.0
  0
LINE
  5
41D
100
AcDbEntity
  8
1BUHIN
  6
HIDDEN
 48
0.5
100
AcDbLine
 10
356.246305
 20
347.721533
 30
0.0
 11
384.426146
 21
358.992665
 31
0.0
  0
LINE
  5
41E
100
AcDbEntity
  8
1BUHIN
  6
HIDDEN
 48
0.5
100
AcDbLine
 10
370.870282
 20
352.936341
 30
0.0
 11
384.503962
 21
358.389424
 31
0.0
  0
LINE
  5
41F
100
AcDbEntity
  8
1AL
100
AcDbLine
 10
386.866939
 20
359.603453
 30
0.0
 11
387.42399
 21
358.210724
 31
0.0
  0
LINE
  5
420
100
AcDbEntity
  8
ALS
100
AcDbLine
 10
385.170234
 20
358.992123
 30
0.0
 11
385.819924
 21
358.731167
 31
0.0
  0
LINE
  5
421
100
AcDbEntity
  8
ALS
100
AcDbLine
 10
385.24805
 20
358.388882
 30
0.0
 11
385.89774
 21
358.127926
 31
0.0
  0
ARC
  5
422
100
AcDbEntity
  8
ALS
 48
0.5
100
AcDbCircle
 10
386.270461
 20
359.055869
 30
0.0
 40
1.0
100
AcDbArc
 50
248.116521
 51
291.8
  0
ARC
  5
423
100
AcDbEntity
  8
ALS
 48
0.5
100
AcDbCircle
 10
384.87533
 20
357.460938
 30
0.0
 40
1.0
100
AcDbArc
 50
68.116521
 51
111.8
  0
ARC
  5
424
100
AcDbEntity
  8
ALS
 48
0.5
100
AcDbCircle
 10
384.797514
 20
358.064179
 30
0.0
 40
1.0
100
AcDbArc
 50
68.116521
 51
111.8
  0
ARC
  5
425
100
AcDbEntity
  8
ALS
 48
0.5
100
AcDbCircle
 10
386.192645
 20
359.65911
 30
0.0
 40
1.0
100
AcDbArc
 50
248.116521
 51
291.8
  0
LINE
  5
426
100
AcDbEntity
  8
1AL
100
AcDbLine
 10
387.42399
 20
358.210724
 30
0.0
 11
388.352476
 21
358.582092
 31
0.0
  0
LINE
  5
427
100
AcDbEntity
  8
1AL
100
AcDbLine
 10
388.166792
 20
359.046335
 30
0.0
 11
388.352476
 21
358.582092
 31
0.0
  0
TEXT
  5
428
100
AcDbEntity
  8
0
 62
     0
100
AcDbText
 10
518.036469
 20
268.624875
 30
0.0
 40
6.0
  1
H
 50
21.8
100
AcDbText
1001
ACAD
1000
MTEXTBEGIN
1070
    73
1070
     1
1070
    44
1040
1.0
1070
    74
1070
     0
1000
MTEXTEND
  0
LINE
  5
429
100
AcDbEntity
  8
WAKU
100
AcDbLine
 10
790.0
 20
0.0
 30
0.0
 11
790.0
 21
550.0
 31
0.0
  0
LINE
  5
42A
100
AcDbEntity
  8
ADM
 62
     0
100
AcDbLine
 10
554.886814
 20
298.442274
 30
0.0
 11
471.981592
 21
265.282551
 31
0.0
1001
ACAD
1000
RTLwPs
1070
   158
  0
LINE
  5
42B
100
AcDbEntity
  8
ADM
 62
     0
100
AcDbLine
 10
449.630885
 20
315.777809
 30
0.0
 11
471.015903
 21
262.31145
 31
0.0
1001
ACAD
1000
RTLwPs
1070
   158
  0
LINE
  5
42C
100
AcDbEntity
  8
ADM
 62
     0
100
AcDbLine
 10
565.471128
 20
285.44334
 30
0.0
 11
477.923477
 21
250.426778
 31
0.0
1001
ACAD
1000
RTLwPs
1070
   158
  0
LINE
  5
42D
100
AcDbEntity
  8
ADM
 62
     0
100
AcDbLine
 10
464.485598
 20
278.638376
 30
0.0
 11
476.957788
 21
247.455676
 31
0.0
1001
ACAD
1000
RTLwPs
1070
   158
  0
LINE
  5
42E
100
AcDbEntity
  8
ADM
100
AcDbLine
 10
708.474226
 20
289.762256
 30
0.0
 11
658.474226
 21
269.762256
 31
0.0
  0
LINE
  5
42F
100
AcDbEntity
  8
ADM
100
AcDbLine
 10
708.474226
 20
269.762256
 30
0.0
 11
708.474226
 21
289.762256
 31
0.0
  0
LINE
  5
430
100
AcDbEntity
  8
1MOKU
100
AcDbLine
 10
463.000127
 20
282.35232
 30
0.0
 11
425.860694
 21
267.497606
 31
0.0
  0
LINE
  5
431
100
AcDbEntity
  8
ALS
100
AcDbLine
 10
429.577022
 20
365.916044
 30
0.0
 11
425.860694
 21
267.497606
 31
0.0
  0
LINE
  5
432
100
AcDbEntity
  8
ACL
  6
CENTER2
100
AcDbLine
 10
404.97472
 20
373.571227
 30
0.0
 11
454.38726
 21
250.031062
 31
0.0
  0
LINE
  5
433
100
AcDbEntity
  8
WAKU
 62
     1
100
AcDbLine
 10
409.0
 20
16.0
 30
0.0
 11
768.0
 21
16.0
 31
0.0
  0
LINE
  5
434
100
AcDbEntity
  8
WAKU
 62
     3
100
AcDbLine
 10
409.0
 20
0.0
 30
0.0
 11
409.0
 21
32.0
 31
0.0
  0
TEXT
  5
435
100
AcDbEntity
  8
WAKU
 62
     2
100
AcDbText
 10
410.668654
 20
10.216468
 30
0.0
 40
4.0
  1
施　工
 72
     1
 11
417.335321
 21
10.216468
 31
0.0
100
AcDbText
  0
TEXT
  5
436
100
AcDbEntity
  8
ADM
100
AcDbText
 10
453.656823
 20
18.710586
 30
0.0
 40
5.0
  1
ダウンロード用
 41
0.8
 72
     1
 11
470.056823
 21
18.710586
 31
0.0
100
AcDbText
  0
TEXT
  5
437
100
AcDbEntity
  8
WAKU
 62
     2
100
AcDbText
 10
410.668654
 20
26.216468
 30
0.0
 40
4.0
  1
設　計
 72
     1
 11
417.335321
 21
26.216468
 31
0.0
100
AcDbText
  0
LINE
  5
438
100
AcDbEntity
  8
WAKU
 62
     1
100
AcDbLine
 10
528.0
 20
0.0
 30
0.0
 11
528.0
 21
32.0
 31
0.0
  0
TEXT
  5
439
100
AcDbEntity
  8
ADM
100
AcDbText
 10
570.52349
 20
2.710586
 30
0.0
 40
5.0
  1
連段窓　納まり図
 41
0.8
 72
     1
 11
589.056823
 21
2.710586
 31
0.0
100
AcDbText
  0
TEXT
  5
43A
100
AcDbEntity
  8
WAKU
 62
     2
100
AcDbText
 10
530.003846
 20
10.216468
 30
0.0
 40
4.0
  1
図面名称
 72
     1
 11
539.203846
 21
10.216468
 31
0.0
100
AcDbText
  0
TEXT
  5
43B
100
AcDbEntity
  8
WAKU
 62
     2
100
AcDbText
 10
523.04016
 20
1.786472
 30
0.0
 40
4.0
  1
殿
 41
0.8
100
AcDbText
  0
TEXT
  5
43C
100
AcDbEntity
  8
ADM
100
AcDbText
 10
565.856823
 20
18.710586
 30
0.0
 40
5.0
  1
ガラス瓦下地ユニット
 41
0.8
 72
     1
 11
589.056823
 21
18.710586
 31
0.0
100
AcDbText
  0
TEXT
  5
43D
100
AcDbEntity
  8
WAKU
 62
     2
100
AcDbText
 10
530.137179
 20
26.216468
 30
0.0
 40
4.0
  1
工事名称
 72
     1
 11
539.203846
 21
26.216468
 31
0.0
100
AcDbText
  0
TEXT
  5
43E
100
AcDbEntity
  8
WAKU
 62
     2
100
AcDbText
 10
523.04016
 20
18.786472
 30
0.0
 40
4.0
  1
殿
 41
0.8
100
AcDbText
  0
LINE
  5
43F
100
AcDbEntity
  8
ADM
 62
     0
100
AcDbLine
 10
396.071747
 20
216.186097
 30
0.0
 11
396.071747
 21
185.186097
 31
0.0
1001
ACAD
1000
RTLwPs
1070
   158
  0
ARC
  5
440
100
AcDbEntity
  8
AHJ
  6
BYBLOCK
 62
     0
100
AcDbCircle
 10
396.071747
 20
183.186097
 30
0.0
 40
0.5
100
AcDbArc
 50
270.0
 51
90.0
  0
ARC
  5
441
100
AcDbEntity
  8
AHJ
  6
BYBLOCK
 62
     0
100
AcDbCircle
 10
396.071747
 20
183.186097
 30
0.0
 40
0.5
100
AcDbArc
 50
90.0
 51
270.0
  0
LINE
  5
442
100
AcDbEntity
  8
AHJ
  6
BYBLOCK
 62
     0
100
AcDbLine
 10
396.071747
 20
184.186097
 30
0.0
 11
396.071747
 21
185.186097
 31
0.0
  0
POINT
  5
443
100
AcDbEntity
  8
DEFPOINTS
 62
     0
100
AcDbPoint
 10
396.071747
 20
183.186097
 30
0.0
  0
ARC
  5
444
100
AcDbEntity
  8
AHJ
  6
BYBLOCK
 62
     0
100
AcDbCircle
 10
396.071747
 20
218.186097
 30
0.0
 40
0.5
100
AcDbArc
 50
90.0
 51
270.0
  0
ARC
  5
445
100
AcDbEntity
  8
AHJ
  6
BYBLOCK
 62
     0
100
AcDbCircle
 10
396.071747
 20
218.186097
 30
0.0
 40
0.5
100
AcDbArc
 50
270.0
 51
90.0
  0
LINE
  5
446
100
AcDbEntity
  8
AHJ
  6
BYBLOCK
 62
     0
100
AcDbLine
 10
396.071747
 20
217.186097
 30
0.0
 11
396.071747
 21
216.186097
 31
0.0
  0
ARC
  5
447
100
AcDbEntity
  8
AHJ
  6
BYBLOCK
 62
     0
100
AcDbCircle
 10
476.066505
 20
249.684042
 30
0.0
 40
0.5
100
AcDbArc
 50
201.8
 51
21.8
  0
ARC
  5
448
100
AcDbEntity
  8
AHJ
  6
BYBLOCK
 62
     0
100
AcDbCircle
 10
476.066505
 20
249.684042
 30
0.0
 40
0.5
100
AcDbArc
 50
21.8
 51
201.8
  0
LINE
  5
449
100
AcDbEntity
  8
AHJ
  6
BYBLOCK
 62
     0
100
AcDbLine
 10
476.994991
 20
250.05541
 30
0.0
 11
477.923477
 21
250.426778
 31
0.0
  0
POINT
  5
44A
100
AcDbEntity
  8
DEFPOINTS
 62
     0
100
AcDbPoint
 10
476.066505
 20
249.684042
 30
0.0
  0
ARC
  5
44B
100
AcDbEntity
  8
AHJ
  6
BYBLOCK
 62
     0
100
AcDbCircle
 10
470.12462
 20
264.539816
 30
0.0
 40
0.5
100
AcDbArc
 50
201.8
 51
21.8
  0
ARC
  5
44C
100
AcDbEntity
  8
AHJ
  6
BYBLOCK
 62
     0
100
AcDbCircle
 10
470.12462
 20
264.539816
 30
0.0
 40
0.5
100
AcDbArc
 50
21.8
 51
201.8
  0
LINE
  5
44D
100
AcDbEntity
  8
AHJ
  6
BYBLOCK
 62
     0
100
AcDbLine
 10
471.053106
 20
264.911183
 30
0.0
 11
471.981592
 21
265.282551
 31
0.0
  0
POINT
  5
44E
100
AcDbEntity
  8
DEFPOINTS
 62
     0
100
AcDbPoint
 10
470.12462
 20
264.539816
 30
0.0
  0
TEXT
  5
44F
100
AcDbEntity
  8
ATX
100
AcDbText
 10
573.937249
 20
239.18888
 30
0.0
 40
8.0
  1
%%U　縦断面図　
100
AcDbText
  0
TEXT
  5
450
100
AcDbEntity
  8
ADM
100
AcDbText
 10
739.042413
 20
2.30824
 30
0.0
 40
5.0
  1
A-150-03
 41
0.7
 72
     1
 11
753.042413
 21
2.30824
 31
0.0
100
AcDbText
  0
LINE
  5
451
100
AcDbEntity
  8
WAKU
 62
     3
100
AcDbLine
 10
738.0
 20
0.0
 30
0.0
 11
738.0
 21
32.0
 31
0.0
  0
LINE
  5
452
100
AcDbEntity
  8
WAKU
 62
     1
100
AcDbLine
 10
678.0
 20
0.0
 30
0.0
 11
678.0
 21
32.0
 31
0.0
  0
LINE
  5
453
100
AcDbEntity
  8
WAKU
 62
     1
100
AcDbLine
 10
708.0
 20
0.0
 30
0.0
 11
708.0
 21
32.0
 31
0.0
  0
LINE
  5
454
100
AcDbEntity
  8
WAKU
 62
     1
100
AcDbLine
 10
693.0
 20
0.0
 30
0.0
 11
693.0
 21
32.0
 31
0.0
  0
LINE
  5
455
100
AcDbEntity
  8
WAKU
 62
     3
100
AcDbLine
 10
648.0
 20
0.0
 30
0.0
 11
648.0
 21
32.0
 31
0.0
  0
TEXT
  5
456
100
AcDbEntity
  8
WAKU
 62
     2
100
AcDbText
 10
696.0
 20
12.0
 30
0.0
 40
3.0
  1
製　図
100
AcDbText
  0
LINE
  5
457
100
AcDbEntity
  8
WAKU
 62
     1
100
AcDbLine
 10
693.0
 20
11.0
 30
0.0
 11
708.0
 21
11.0
 31
0.0
  0
TEXT
  5
458
100
AcDbEntity
  8
ADM
100
AcDbText
 10
650.226993
 20
1.352513
 30
0.0
 40
4.0
  1
A-150-03
 41
0.8
 72
     1
 11
663.026993
 21
1.352513
 31
0.0
100
AcDbText
  0
TEXT
  5
459
100
AcDbEntity
  8
WAKU
 62
     2
100
AcDbText
 10
649.216675
 20
12.0
 30
0.0
 40
3.0
  1
ファイルＮｏ．
 72
     1
 11
660.516675
 21
12.0
 31
0.0
100
AcDbText
  0
TEXT
  5
45A
100
AcDbEntity
  8
ADM
100
AcDbText
 10
681.59807
 20
3.173923
 30
0.0
 40
4.5
  1
白井
 41
0.8
 72
     1
 11
685.67807
 21
3.173923
 31
0.0
100
AcDbText
  0
TEXT
  5
45B
100
AcDbEntity
  8
WAKU
 62
     2
100
AcDbText
 10
709.752396
 20
12.0
 30
0.0
 40
3.0
  1
修正日
 72
     1
 11
714.552396
 21
12.0
 31
0.0
100
AcDbText
  0
TEXT
  5
45C
100
AcDbEntity
  8
ADM
100
AcDbText
 10
708.745394
 20
1.674338
 30
0.0
 40
3.0
  1
H15
 41
0.8
100
AcDbText
  0
TEXT
  5
45D
100
AcDbEntity
  8
ADM
100
AcDbText
 10
716.172718
 20
1.584137
 30
0.0
 40
2.5
  1
年
 72
     1
 11
717.339385
 21
1.584137
 31
0.0
100
AcDbText
  0
TEXT
  5
45E
100
AcDbEntity
  8
ADM
100
AcDbText
 10
725.125735
 20
1.584137
 30
0.0
 40
2.5
  1
月
 72
     1
 11
726.125735
 21
1.584137
 31
0.0
100
AcDbText
  0
TEXT
  5
45F
100
AcDbEntity
  8
ADM
100
AcDbText
 10
720.607293
 20
1.674338
 30
0.0
 40
3.0
  1
5
 41
0.8
 72
     1
 11
721.75015
 21
1.674338
 31
0.0
100
AcDbText
  0
TEXT
  5
460
100
AcDbEntity
  8
ADM
100
AcDbText
 10
728.86992
 20
1.674338
 30
0.0
 40
3.0
  1
15
 41
0.8
 72
     1
 11
731.327063
 21
1.674338
 31
0.0
100
AcDbText
  0
TEXT
  5
461
100
AcDbEntity
  8
WAKU
 62
     2
100
AcDbText
 10
740.3
 20
12.0
 30
0.0
 40
3.0
  1
図面ＮＯ．
 72
     1
 11
748.0
 21
12.0
 31
0.0
100
AcDbText
  0
TEXT
  5
462
100
AcDbEntity
  8
ADM
100
AcDbText
 10
734.473178
 20
1.584137
 30
0.0
 40
2.5
  1
日
 72
     1
 11
735.639844
 21
1.584137
 31
0.0
100
AcDbText
  0
TEXT
  5
463
100
AcDbEntity
  8
WAKU
 62
     2
100
AcDbText
 10
696.0
 20
28.0
 30
0.0
 40
3.0
  1
担  当
100
AcDbText
  0
LINE
  5
464
100
AcDbEntity
  8
WAKU
 62
     1
100
AcDbLine
 10
678.0
 20
27.0
 30
0.0
 11
708.0
 21
27.0
 31
0.0
  0
TEXT
  5
465
100
AcDbEntity
  8
WAKU
 62
     2
100
AcDbText
 10
649.75408
 20
28.0
 30
0.0
 40
3.0
  1
縮 尺
100
AcDbText
  0
TEXT
  5
466
100
AcDbEntity
  8
ADM
100
AcDbText
 10
654.248813
 20
19.070639
 30
0.0
 40
4.0
  1
A1  1/1
 41
0.8
 72
     1
 11
663.178337
 21
19.070639
 31
0.0
100
AcDbText
  0
TEXT
  5
467
100
AcDbEntity
  8
WAKU
 62
     2
100
AcDbText
 10
681.0
 20
28.0
 30
0.0
 40
3.0
  1
検　図
100
AcDbText
  0
TEXT
  5
468
100
AcDbEntity
  8
ADM
100
AcDbText
 10
681.95807
 20
18.464018
 30
0.0
 40
4.5
  1
樋口
 41
0.8
 72
     1
 11
685.67807
 21
18.464018
 31
0.0
100
AcDbText
  0
TEXT
  5
469
100
AcDbEntity
  8
WAKU
 62
     2
100
AcDbText
 10
709.470214
 20
28.0
 30
0.0
 40
3.0
  1
作図日
 72
     1
 11
714.270214
 21
28.0
 31
0.0
100
AcDbText
  0
TEXT
  5
46A
100
AcDbEntity
  8
ADM
100
AcDbText
 10
708.745394
 20
17.674338
 30
0.0
 40
3.0
  1
S59
 41
0.8
100
AcDbText
  0
TEXT
  5
46B
100
AcDbEntity
  8
ADM
100
AcDbText
 10
716.172718
 20
17.584137
 30
0.0
 40
2.5
  1
年
 72
     1
 11
717.339385
 21
17.584137
 31
0.0
100
AcDbText
  0
TEXT
  5
46C
100
AcDbEntity
  8
ADM
100
AcDbText
 10
716.172718
 20
17.584137
 30
0.0
 40
2.5
  1
年
 72
     1
 11
717.339385
 21
17.584137
 31
0.0
100
AcDbText
  0
TEXT
  5
46D
100
AcDbEntity
  8
ADM
100
AcDbText
 10
725.125735
 20
17.584137
 30
0.0
 40
2.5
  1
月
 72
     1
 11
726.125735
 21
17.584137
 31
0.0
100
AcDbText
  0
TEXT
  5
46E
100
AcDbEntity
  8
ADM
100
AcDbText
 10
720.607293
 20
17.674338
 30
0.0
 40
3.0
  1
5
 41
0.8
 72
     1
 11
721.75015
 21
17.674338
 31
0.0
100
AcDbText
  0
TEXT
  5
46F
100
AcDbEntity
  8
ADM
100
AcDbText
 10
728.812777
 20
17.674338
 30
0.0
 40
3.0
  1
14
 41
0.8
 72
     1
 11
731.327063
 21
17.674338
 31
0.0
100
AcDbText
  0
TEXT
  5
470
100
AcDbEntity
  8
WAKU
 62
     2
100
AcDbText
 10
740.101398
 20
28.0
 30
0.0
 40
3.0
  1
整理番号
100
AcDbText
  0
TEXT
  5
471
100
AcDbEntity
  8
ADM
100
AcDbText
 10
734.473178
 20
17.584137
 30
0.0
 40
2.5
  1
日
 72
     1
 11
735.639844
 21
17.584137
 31
0.0
100
AcDbText
  0
LINE
  5
472
100
AcDbEntity
  8
WAKU
 62
     1
100
AcDbLine
 10
768.0
 20
0.0
 30
0.0
 11
768.0
 21
32.0
 31
0.0
  0
TEXT
  5
473
100
AcDbEntity
  8
ADM
100
AcDbText
 10
769.66878
 20
2.30824
 30
0.0
 40
4.0
  1
9/36 葉
 41
0.8
 72
     1
 11
778.598303
 21
2.30824
 31
0.0
100
AcDbText
  0
TEXT
  5
474
100
AcDbEntity
  8
ADM
100
AcDbText
 10
771.387004
 20
9.640249
 30
0.0
 40
4.0
  1
総数
 41
0.8
 72
     1
 11
774.800337
 21
9.640249
 31
0.0
100
AcDbText
  0
LINE
  5
475
100
AcDbEntity
  8
ADM
100
AcDbLine
 10
658.474226
 20
269.762256
 30
0.0
 11
708.474226
 21
269.762256
 31
0.0
  0
TEXT
  5
476
100
AcDbEntity
  8
ADM
100
AcDbText
 10
678.77923
 20
259.092316
 30
0.0
 40
6.0
  1
10
100
AcDbText
  0
TEXT
  5
477
100
AcDbEntity
  8
0
 62
     0
100
AcDbText
 10
631.940277
 20
331.415506
 30
0.0
 40
6.0
  1
H-5
 50
21.8
100
AcDbText
1001
ACAD
1000
MTEXTBEGIN
1070
    73
1070
     1
1070
    44
1040
1.0
1070
    74
1070
     0
1000
MTEXTEND
  0
LINE
  5
478
100
AcDbEntity
  8
1AL
100
AcDbLine
 10
638.747806
 20
451.732434
 30
0.0
 11
651.282365
 21
456.7459
 31
0.0
  0
LINE
  5
479
100
AcDbEntity
  8
1AL
100
AcDbLine
 10
636.055224
 20
451.7325
 30
0.0
 11
650.910997
 21
457.674385
 31
0.0
  0
ARC
  5
47A
100
AcDbEntity
  8
1AL
100
AcDbCircle
 10
642.461452
 20
441.101284
 30
0.0
 40
0.5
100
AcDbArc
 50
111.8
 51
201.8
  0
LINE
  5
47B
100
AcDbEntity
  8
1AL
100
AcDbLine
 10
640.883072
 20
442.354767
 30
0.0
 11
644.945198
 21
443.979501
 31
0.0
  0
LINE
  5
47C
100
AcDbEntity
  8
1AL
100
AcDbLine
 10
640.246435
 20
446.408219
 30
0.0
 11
643.575787
 21
447.739865
 31
0.0
  0
LINE
  5
47D
100
AcDbEntity
  8
1AL
100
AcDbLine
 10
640.418962
 20
447.554248
 30
0.0
 11
643.204419
 21
448.668351
 31
0.0
  0
LINE
  5
47E
100
AcDbEntity
  8
1AL
100
AcDbLine
 10
641.811426
 20
437.34097
 30
0.0
 11
642.739911
 21
437.712338
 31
0.0
  0
LINE
  5
47F
100
AcDbEntity
  8
ACL
  6
CENTER
100
AcDbLine
 10
634.963521
 20
437.294559
 30
0.0
 11
646.795471
 21
442.027001
 31
0.0
  0
LINE
  5
480
100
AcDbEntity
  8
ACL
  6
CENTER
100
AcDbLine
 10
641.276774
 20
421.5103
 30
0.0
 11
653.108724
 21
426.242742
 31
0.0
  0
LINE
  5
481
100
AcDbEntity
  8
ACL
  6
CENTER
100
AcDbLine
 10
624.647799
 20
438.015165
 30
0.0
 11
648.005842
 21
447.357716
 31
0.0
  0
LINE
  5
482
100
AcDbEntity
  8
ACL
  6
CENTER
100
AcDbLine
 10
631.208037
 20
422.329693
 30
0.0
 11
654.072107
 21
431.474669
 31
0.0
  0
LINE
  5
483
100
AcDbEntity
  8
1AL
100
AcDbLine
 10
643.074076
 20
434.184118
 30
0.0
 11
641.681347
 21
433.627066
 31
0.0
  0
LINE
  5
484
100
AcDbEntity
  8
1AL
100
AcDbLine
 10
643.482581
 20
433.162783
 30
0.0
 11
641.625609
 21
432.420048
 31
0.0
  0
LINE
  5
485
100
AcDbEntity
  8
1AL
100
AcDbLine
 10
636.61221
 20
447.647189
 30
0.0
 11
641.997043
 21
434.184144
 31
0.0
  0
LINE
  5
486
100
AcDbEntity
  8
1AL
100
AcDbLine
 10
638.469115
 20
445.697342
 30
0.0
 11
641.904267
 21
437.108848
 31
0.0
  0
ARC
  5
487
100
AcDbEntity
  8
1AL
  6
HIDDEN
100
AcDbCircle
 10
641.532668
 20
428.613296
 30
0.0
 40
0.5
100
AcDbArc
 50
21.8
 51
111.8
  0
LINE
  5
488
100
AcDbEntity
  8
1AL
  6
HIDDEN
100
AcDbLine
 10
642.368345
 20
430.563076
 30
0.0
 11
631.690758
 21
426.292346
 31
0.0
  0
LINE
  5
489
100
AcDbEntity
  8
ADM
 62
     0
100
AcDbLine
 10
683.287841
 20
349.799021
 30
0.0
 11
600.382619
 21
316.639298
 31
0.0
1001
ACAD
1000
RTLwPs
1070
   158
  0
LINE
  5
48A
100
AcDbEntity
  8
ADM
 62
     0
100
AcDbLine
 10
606.324504
 20
301.783525
 30
0.0
 11
693.872155
 21
336.800087
 31
0.0
1001
ACAD
1000
RTLwPs
1070
   158
  0
LINE
  5
48B
100
AcDbEntity
  8
ALS
100
AcDbLine
 10
591.401154
 20
333.709066
 30
0.0
 11
682.662749
 21
370.2111
 31
0.0
  0
LINE
  5
48C
100
AcDbEntity
  8
ALS
100
AcDbLine
 10
615.678235
 20
402.655436
 30
0.0
 11
649.238716
 21
416.078671
 31
0.0
  0
LINE
  5
48D
100
AcDbEntity
  8
ALS
100
AcDbLine
 10
599.33805
 20
443.508812
 30
0.0
 11
664.467049
 21
469.558554
 31
0.0
  0
TEXT
  5
48E
100
AcDbEntity
  8
0
 62
     0
100
AcDbText
 10
484.414765
 20
440.398598
 30
0.0
 40
6.0
  1
28
 50
21.8
100
AcDbText
  0
LINE
  5
48F
100
AcDbEntity
  8
1AL
100
AcDbLine
 10
639.490476
 20
447.18288
 30
0.0
 11
638.654799
 21
445.233099
 31
0.0
  0
LINE
  5
490
100
AcDbEntity
  8
1AL
100
AcDbLine
 10
624.263401
 20
444.862063
 30
0.0
 11
631.227045
 21
447.647321
 31
0.0
  0
ARC
  5
491
100
AcDbEntity
  8
1AL
100
AcDbCircle
 10
632.619376
 20
432.048879
 30
0.0
 40
17.0
100
AcDbArc
 50
96.450523
 51
124.435625
  0
LINE
  5
492
100
AcDbEntity
  8
1AL
100
AcDbLine
 10
639.304792
 20
447.647123
 30
0.0
 11
638.469115
 21
445.697342
 31
0.0
  0
LINE
  5
493
100
AcDbEntity
  8
0
  6
BYBLOCK
 62
     0
100
AcDbLine
 10
576.919266
 20
429.156827
 30
0.0
 11
560.136774
 21
471.11605
 31
0.0
  0
LINE
  5
494
100
AcDbEntity
  8
0
  6
BYBLOCK
 62
     0
100
AcDbLine
 10
556.492578
 20
420.986734
 30
0.0
 11
539.710086
 21
462.945958
 31
0.0
  0
LINE
  5
495
100
AcDbEntity
  8
0
  6
BYBLOCK
 62
     0
100
AcDbLine
 10
516.75357
 20
412.631422
 30
0.0
 11
502.570653
 21
448.091244
 31
0.0
  0
LINE
  5
496
100
AcDbEntity
  8
0
  6
BYBLOCK
 62
     0
100
AcDbLine
 10
576.362214
 20
430.549555
 30
0.0
 11
560.136774
 21
471.11605
 31
0.0
  0
LINE
  5
497
100
AcDbEntity
  8
ACL
  6
CENTER2
100
AcDbLine
 10
593.516276
 20
449.986042
 30
0.0
 11
615.269924
 21
395.598042
 31
0.0
  0
LINE
  5
498
100
AcDbEntity
  8
ACL
  6
CENTER2
100
AcDbLine
 10
596.285798
 20
451.139987
 30
0.0
 11
618.055381
 21
396.712145
 31
0.0
  0
LINE
  5
499
100
AcDbEntity
  8
1BUHIN
100
AcDbLine
 10
601.566257
 20
437.937897
 30
0.0
 11
630.484309
 21
449.504293
 31
0.0
  0
LINE
  5
49A
100
AcDbEntity
  8
1BUHIN
100
AcDbLine
 10
600.823521
 20
439.794869
 30
0.0
 11
629.741573
 21
451.361265
 31
0.0
  0
LINE
  5
49B
100
AcDbEntity
  8
ALS
100
AcDbLine
 10
600.080785
 20
441.651841
 30
0.0
 11
620.642465
 21
449.875926
 31
0.0
  0
LINE
  5
49C
100
AcDbEntity
  8
ACL
  6
CENTER2
100
AcDbLine
 10
596.647775
 20
450.234979
 30
0.0
 11
618.055381
 21
396.712145
 31
0.0
  0
LINE
  5
49D
100
AcDbEntity
  8
ACL
  6
CENTER2
100
AcDbLine
 10
593.862317
 20
449.120876
 30
0.0
 11
615.269924
 21
395.598042
 31
0.0
  0
TEXT
  5
49E
100
AcDbEntity
  8
0
 62
     0
100
AcDbText
 10
503.53925
 20
280.058759
 30
0.0
 40
6.0
  1
H-5
 50
21.8
100
AcDbText
1001
ACAD
1000
MTEXTBEGIN
1070
    73
1070
     1
1070
    44
1040
1.0
1070
    74
1070
     0
1000
MTEXTEND
  0
LINE
  5
49F
100
AcDbEntity
  8
1AL
100
AcDbLine
 10
515.267966
 20
410.9602
 30
0.0
 11
529.195253
 21
416.530718
 31
0.0
  0
LINE
  5
4A0
100
AcDbEntity
  8
1AL
100
AcDbLine
 10
516.56782
 20
410.403082
 30
0.0
 11
529.452617
 21
415.556634
 31
0.0
  0
ARC
  5
4A1
100
AcDbEntity
  8
1AL
100
AcDbCircle
 10
518.5176
 20
409.567405
 30
0.0
 40
0.5
100
AcDbArc
 50
201.8
 51
21.8
  0
LINE
  5
4A2
100
AcDbEntity
  8
1AL
100
AcDbLine
 10
517.496305
 20
410.77445
 30
0.0
 11
529.566621
 21
415.602232
 31
0.0
  0
LINE
  5
4A3
100
AcDbEntity
  8
1AL
100
AcDbLine
 10
510.346779
 20
400.375687
 30
0.0
 11
522.881338
 21
405.389153
 31
0.0
  0
LINE
  5
4A4
100
AcDbEntity
  8
1AL
100
AcDbLine
 10
507.654197
 20
400.375753
 30
0.0
 11
522.50997
 21
406.317638
 31
0.0
  0
ARC
  5
4A5
100
AcDbEntity
  8
1AL
100
AcDbCircle
 10
518.168905
 20
388.560629
 30
0.0
 40
0.625
100
AcDbArc
 50
291.8
 51
111.8
  0
LINE
  5
4A6
100
AcDbEntity
  8
1AL
100
AcDbLine
 10
517.124143
 20
379.391947
 30
0.0
 11
521.302329
 21
381.063102
 31
0.0
  0
LINE
  5
4A7
100
AcDbEntity
  8
1AL
100
AcDbLine
 10
517.124143
 20
379.391947
 30
0.0
 11
518.702456
 21
375.445882
 31
0.0
  0
LINE
  5
4A8
100
AcDbEntity
  8
1AL
100
AcDbLine
 10
517.681261
 20
380.691801
 30
0.0
 11
520.930961
 21
381.991588
 31
0.0
  0
LINE
  5
4A9
100
AcDbEntity
  8
1AL
100
AcDbLine
 10
515.824289
 20
379.949065
 30
0.0
 11
519.723651
 21
370.199964
 31
0.0
  0
LINE
  5
4AA
100
AcDbEntity
  8
ACL
  6
CENTER
100
AcDbLine
 10
512.875747
 20
370.153553
 30
0.0
 11
524.707697
 21
374.885996
 31
0.0
  0
LINE
  5
4AB
100
AcDbEntity
  8
ACL
  6
CENTER
100
AcDbLine
 10
496.246771
 20
386.658418
 30
0.0
 11
519.604815
 21
396.000969
 31
0.0
  0
LINE
  5
4AC
100
AcDbEntity
  8
ACL
  6
CENTER
100
AcDbLine
 10
502.807009
 20
370.972946
 30
0.0
 11
525.67108
 21
380.117922
 31
0.0
  0
LINE
  5
4AD
100
AcDbEntity
  8
1AL
100
AcDbLine
 10
515.731447
 20
380.181186
 30
0.0
 11
519.909335
 21
369.735721
 31
0.0
  0
LINE
  5
4AE
100
AcDbEntity
  8
1AL
100
AcDbLine
 10
514.153068
 20
381.434669
 30
0.0
 11
519.537901
 21
367.971624
 31
0.0
  0
LINE
  5
4AF
100
AcDbEntity
  8
1BUHIN
  6
HIDDEN
 48
0.5
100
AcDbLine
 10
516.880641
 20
410.772882
 30
0.0
 11
528.643943
 21
415.477867
 31
0.0
  0
LINE
  5
4B0
100
AcDbEntity
  8
1BUHIN
  6
HIDDEN
 48
0.5
100
AcDbLine
 10
517.125887
 20
410.159721
 30
0.0
 11
528.561896
 21
414.733798
 31
0.0
  0
LINE
  5
4B1
100
AcDbEntity
  8
ALS
100
AcDbLine
 10
463.000127
 20
282.35232
 30
0.0
 11
554.261721
 21
318.854353
 31
0.0
  0
LINE
  5
4B2
100
AcDbEntity
  8
ALS
100
AcDbLine
 10
520.837689
 20
364.721924
 30
0.0
 11
489.598422
 21
352.227109
 31
0.0
  0
LINE
  5
4B3
100
AcDbEntity
  8
1AL
100
AcDbLine
 10
438.078378
 20
368.89587
 30
0.0
 11
444.246647
 21
353.474095
 31
0.0
  0
LINE
  5
4B4
100
AcDbEntity
  8
1AL
100
AcDbLine
 10
436.914701
 20
369.112522
 30
0.0
 11
443.318161
 21
353.102728
 31
0.0
  0
LINE
  5
4B5
100
AcDbEntity
  8
ALS
100
AcDbLine
 10
480.128343
 20
367.82575
 30
0.0
 11
458.638178
 21
359.230297
 31
0.0
  0
LINE
  5
4B6
100
AcDbEntity
  8
ACL
  6
CENTER2
100
AcDbLine
 10
470.943219
 20
398.868443
 30
0.0
 11
492.832123
 21
344.142278
 31
0.0
  0
LINE
  5
4B7
100
AcDbEntity
  8
ACL
  6
CENTER2
100
AcDbLine
 10
468.157761
 20
397.75434
 30
0.0
 11
490.046666
 21
343.028174
 31
0.0
  0
LINE
  5
4B8
100
AcDbEntity
  8
ALS
100
AcDbLine
 10
451.210821
 20
377.800013
 30
0.0
 11
458.638178
 21
359.230297
 31
0.0
  0
LINE
  5
4B9
100
AcDbEntity
  8
1MOKU
100
AcDbLine
 10
398.380136
 20
363.131381
 30
0.0
 11
401.722447
 21
354.775009
 31
0.0
  0
LINE
  5
4BA
100
AcDbEntity
  8
1MOKU
100
AcDbLine
 10
429.577022
 20
365.916044
 30
0.0
 11
463.000127
 21
282.35232
 31
0.0
  0
ARC
  5
4BB
100
AcDbEntity
  8
1AL
100
AcDbCircle
 10
456.224022
 20
354.495125
 30
0.0
 40
0.5
100
AcDbArc
 50
291.8
 51
111.8
  0
LINE
  5
4BC
100
AcDbEntity
  8
ALS
100
AcDbLine
 10
486.812964
 20
351.113005
 30
0.0
 11
451.859754
 21
337.132718
 31
0.0
  0
LINE
  5
4BD
100
AcDbEntity
  8
ACL
  6
CENTER2
100
AcDbLine
 10
442.327063
 20
346.782694
 30
0.0
 11
465.08174
 21
355.883915
 31
0.0
  0
LINE
  5
4BE
100
AcDbEntity
  8
1AL
100
AcDbLine
 10
444.618015
 20
352.54561
 30
0.0
 11
450.5599
 21
337.689836
 31
0.0
  0
LINE
  5
4BF
100
AcDbEntity
  8
1AL
100
AcDbLine
 10
443.689529
 20
352.174242
 30
0.0
 11
449.260047
 21
338.246954
 31
0.0
  0
LINE
  5
4C0
100
AcDbEntity
  8
1AL
100
AcDbLine
 10
450.5599
 20
337.689836
 30
0.0
 11
444.618015
 21
352.54561
 31
0.0
  0
LINE
  5
4C1
100
AcDbEntity
  8
1AL
100
AcDbLine
 10
451.859754
 20
337.132718
 30
0.0
 11
445.917869
 21
351.988492
 31
0.0
  0
POINT
  5
4C2
100
AcDbEntity
  8
DEFPOINTS
 62
     0
100
AcDbPoint
 10
448.145413
 20
319.491753
 30
0.0
  0
LINE
  5
4C3
100
AcDbEntity
  8
1AL
100
AcDbLine
 10
444.524743
 20
335.275945
 30
0.0
 11
450.5599
 21
337.689836
 31
0.0
  0
LINE
  5
4C4
100
AcDbEntity
  8
1AL
100
AcDbLine
 10
444.153375
 20
336.204431
 30
0.0
 11
449.260047
 21
338.246954
 31
0.0
  0
LINE
  5
4C5
100
AcDbEntity
  8
1AL
100
AcDbLine
 10
450.5599
 20
337.689836
 30
0.0
 11
444.0605
 21
335.090262
 31
0.0
  0
LINE
  5
4C6
100
AcDbEntity
  8
1AL
100
AcDbLine
 10
451.859754
 20
337.132718
 30
0.0
 11
443.503382
 21
333.790408
 31
0.0
  0
ARC
  5
4C7
100
AcDbEntity
  8
1AL
100
AcDbCircle
 10
444.339059
 20
335.740188
 30
0.0
 40
0.5
100
AcDbArc
 50
111.8
 51
291.8
  0
LINE
  5
4C8
100
AcDbEntity
  8
1AL
100
AcDbLine
 10
444.617618
 20
336.390115
 30
0.0
 11
444.431934
 21
336.854358
 31
0.0
  0
LINE
  5
4C9
100
AcDbEntity
  8
1AL
100
AcDbLine
 10
443.782007
 20
337.132917
 30
0.0
 11
442.389278
 21
336.575865
 31
0.0
  0
LINE
  5
4CA
100
AcDbEntity
  8
1AL
100
AcDbLine
 10
444.0605
 20
335.090262
 30
0.0
 11
443.689132
 21
336.018747
 31
0.0
  0
LINE
  5
4CB
100
AcDbEntity
  8
1AL
100
AcDbLine
 10
444.617618
 20
336.390115
 30
0.0
 11
443.689132
 21
336.018747
 31
0.0
  0
ARC
  5
4CC
100
AcDbEntity
  8
1AL
100
AcDbCircle
 10
443.967691
 20
336.668674
 30
0.0
 40
0.5
100
AcDbArc
 50
21.8
 51
111.8
  0
LINE
  5
4CD
100
AcDbEntity
  8
1AL
100
AcDbLine
 10
443.503382
 20
333.790408
 30
0.0
 11
442.389278
 21
336.575865
 31
0.0
  0
LINE
  5
4CE
100
AcDbEntity
  8
1AL
100
AcDbLine
 10
436.261643
 20
349.203299
 30
0.0
 11
443.689529
 21
352.174242
 31
0.0
  0
LINE
  5
4CF
100
AcDbEntity
  8
1AL
100
AcDbLine
 10
436.818761
 20
350.503153
 30
0.0
 11
443.318161
 21
353.102728
 31
0.0
  0
LINE
  5
4D0
100
AcDbEntity
  8
1AL
100
AcDbLine
 10
435.333223
 20
351.524514
 30
0.0
 11
436.261643
 21
349.203299
 31
0.0
  0
LINE
  5
4D1
100
AcDbEntity
  8
1AL
100
AcDbLine
 10
436.261709
 20
351.895882
 30
0.0
 11
436.818761
 21
350.503153
 31
0.0
  0
ARC
  5
4D2
100
AcDbEntity
  8
1AL
100
AcDbCircle
 10
435.797466
 20
351.710198
 30
0.0
 40
0.5
100
AcDbArc
 50
21.8
 51
201.8
  0
LINE
  5
4D3
100
AcDbEntity
  8
1AL
100
AcDbLine
 10
444.246647
 20
353.474095
 30
0.0
 11
450.746048
 21
356.07367
 31
0.0
  0
LINE
  5
4D4
100
AcDbEntity
  8
1AL
100
AcDbLine
 10
444.618015
 20
352.54561
 30
0.0
 11
453.252933
 21
355.999331
 31
0.0
  0
LINE
  5
4D5
100
AcDbEntity
  8
1AL
100
AcDbLine
 10
444.618015
 20
352.54561
 30
0.0
 11
453.902873
 21
356.259288
 31
0.0
  0
LINE
  5
4D6
100
AcDbEntity
  8
1AL
100
AcDbLine
 10
445.917869
 20
351.988492
 30
0.0
 11
454.274241
 21
355.330802
 31
0.0
  0
LINE
  5
4D7
100
AcDbEntity
  8
1AL
100
AcDbLine
 10
453.531506
 20
357.187774
 30
0.0
 11
453.642916
 21
356.909228
 31
0.0
  0
LINE
  5
4D8
100
AcDbEntity
  8
1AL
100
AcDbLine
 10
450.188996
 20
357.466399
 30
0.0
 11
450.746048
 21
356.07367
 31
0.0
  0
LINE
  5
4D9
100
AcDbEntity
  8
1AL
100
AcDbLine
 10
451.117482
 20
357.837767
 30
0.0
 11
451.674534
 21
356.445038
 31
0.0
  0
ARC
  5
4DA
100
AcDbEntity
  8
1AL
100
AcDbCircle
 10
450.653239
 20
357.652083
 30
0.0
 40
0.5
100
AcDbArc
 50
21.8
 51
201.8
  0
LINE
  5
4DB
100
AcDbEntity
  8
1AL
100
AcDbLine
 10
451.674534
 20
356.445038
 30
0.0
 11
453.531506
 21
357.187774
 31
0.0
  0
ARC
  5
4DC
100
AcDbEntity
  8
1AL
100
AcDbCircle
 10
452.992976
 20
356.649271
 30
0.0
 40
0.7
100
AcDbArc
 50
291.8
 51
21.8
  0
ARC
  5
4DD
100
AcDbEntity
  8
1AL
100
AcDbCircle
 10
452.881579
 20
357.466333
 30
0.0
 40
0.5
100
AcDbArc
 50
111.8
 51
201.8
  0
LINE
  5
4DE
100
AcDbEntity
  8
1AL
100
AcDbLine
 10
452.695895
 20
357.930576
 30
0.0
 11
454.088624
 21
358.487627
 31
0.0
  0
LINE
  5
4DF
100
AcDbEntity
  8
1AL
100
AcDbLine
 10
455.574095
 20
354.773684
 30
0.0
 11
456.038338
 21
354.959368
 31
0.0
  0
LINE
  5
4E0
100
AcDbEntity
  8
1AL
100
AcDbLine
 10
453.531506
 20
357.187774
 30
0.0
 11
453.902873
 21
356.259288
 31
0.0
  0
LINE
  5
4E1
100
AcDbEntity
  8
1AL
100
AcDbLine
 10
452.60302
 20
356.816406
 30
0.0
 11
453.531506
 21
357.187774
 31
0.0
  0
LINE
  5
4E2
100
AcDbEntity
  8
1AL
100
AcDbLine
 10
454.274241
 20
355.330802
 30
0.0
 11
455.016977
 21
353.473831
 31
0.0
  0
LINE
  5
4E3
100
AcDbEntity
  8
1AL
100
AcDbLine
 10
455.016977
 20
353.473831
 30
0.0
 11
456.409706
 21
354.030882
 31
0.0
  0
LINE
  5
4E4
100
AcDbEntity
  8
1AL
100
AcDbLine
 10
452.417336
 20
357.280649
 30
0.0
 11
452.60302
 21
356.816406
 31
0.0
  0
LINE
  5
4E5
100
AcDbEntity
  8
1AL
100
AcDbLine
 10
454.088624
 20
358.487627
 30
0.0
 11
455.574095
 21
354.773684
 31
0.0
  0
POINT
  5
4E6
100
AcDbEntity
  8
DEFPOINTS
 62
     0
100
AcDbPoint
 10
463.000127
 20
282.35232
 30
0.0
  0
TEXT
  5
4E7
100
AcDbEntity
  8
0
 62
     0
100
AcDbText
 10
442.497911
 20
423.633053
 30
0.0
 40
6.0
  1
H-50
 50
21.8
100
AcDbText
  0
LINE
  5
4E8
100
AcDbEntity
  8
0
  6
BYBLOCK
 62
     0
100
AcDbLine
 10
434.484001
 20
418.273673
 30
0.0
 11
475.607361
 21
434.721843
 31
0.0
  0
LINE
  5
4E9
100
AcDbEntity
  8
1BUHIN
100
AcDbLine
 10
471.958251
 20
388.252438
 30
0.0
 11
437.469284
 21
374.457835
 31
0.0
  0
LINE
  5
4EA
100
AcDbEntity
  8
1BUHIN
100
AcDbLine
 10
472.700987
 20
386.395466
 30
0.0
 11
437.283533
 21
372.229496
 31
0.0
  0
LINE
  5
4EB
100
AcDbEntity
  8
ALS
100
AcDbLine
 10
471.215515
 20
390.10941
 30
0.0
 11
430.69139
 21
373.900916
 31
0.0
  0
LINE
  5
4EC
100
AcDbEntity
  8
1BUHIN
100
AcDbLine
 10
470.47278
 20
391.966381
 30
0.0
 11
404.889547
 21
365.73496
 31
0.0
  0
LINE
  5
4ED
100
AcDbEntity
  8
ALS
100
AcDbLine
 10
475.300561
 20
379.896066
 30
0.0
 11
453.810396
 21
371.300613
 31
0.0
  0
LINE
  5
4EE
100
AcDbEntity
  8
ACL
  6
CENTER2
100
AcDbLine
 10
435.911824
 20
362.821938
 30
0.0
 11
458.6665
 21
371.923159
 31
0.0
  0
LINE
  5
4EF
100
AcDbEntity
  8
0
  6
BYBLOCK
 62
     0
100
AcDbLine
 10
447.961187
 20
379.192808
 30
0.0
 11
431.735746
 21
419.759303
 31
0.0
  0
LINE
  5
4F0
100
AcDbEntity
  8
1AL
100
AcDbLine
 10
419.936801
 20
366.786839
 30
0.0
 11
436.914701
 21
369.112522
 31
0.0
  0
LINE
  5
4F1
100
AcDbEntity
  8
1AL
100
AcDbLine
 10
400.794226
 20
365.173971
 30
0.0
 11
436.151534
 21
370.017319
 31
0.0
  0
LINE
  5
4F2
100
AcDbEntity
  8
1AL
100
AcDbLine
 10
401.05159
 20
364.199887
 30
0.0
 11
418.535293
 21
366.594856
 31
0.0
  0
ARC
  5
4F3
100
AcDbEntity
  8
1BUHIN
  6
HIDDEN
 48
0.5
100
AcDbCircle
 10
398.867956
 20
361.940463
 30
0.0
 40
1.0
100
AcDbArc
 50
87.000719
 51
111.8
  0
ARC
  5
4F4
100
AcDbEntity
  8
1BUHIN
  6
HIDDEN
 48
0.5
100
AcDbCircle
 10
398.53099
 20
362.440052
 30
0.0
 40
1.0
100
AcDbArc
 50
87.000719
 51
111.8
  0
LINE
  5
4F5
100
AcDbEntity
  8
1BUHIN
  6
HIDDEN
 48
0.5
100
AcDbLine
 10
398.583314
 20
363.438682
 30
0.0
 11
401.296963
 21
363.2965
 31
0.0
  0
LINE
  5
4F6
100
AcDbEntity
  8
1BUHIN
  6
HIDDEN
 48
0.5
100
AcDbLine
 10
398.920279
 20
362.939093
 30
0.0
 11
401.493848
 21
362.804251
 31
0.0
  0
ARC
  5
4F7
100
AcDbEntity
  8
1AL
100
AcDbCircle
 10
419.977515
 20
366.489614
 30
0.0
 40
0.3
100
AcDbArc
 50
97.8
 51
201.8
  0
LINE
  5
4F8
100
AcDbEntity
  8
1AL
100
AcDbLine
 10
420.849281
 20
363.502219
 30
0.0
 11
421.313524
 21
363.687903
 31
0.0
  0
ARC
  5
4F9
100
AcDbEntity
  8
1AL
100
AcDbCircle
 10
421.499208
 20
363.22366
 30
0.0
 40
0.5
100
AcDbArc
 50
291.8
 51
111.8
  0
LINE
  5
4FA
100
AcDbEntity
  8
1AL
100
AcDbLine
 10
420.292163
 20
362.202366
 30
0.0
 11
421.684892
 21
362.759417
 31
0.0
  0
LINE
  5
4FB
100
AcDbEntity
  8
1AL
100
AcDbLine
 10
418.535293
 20
366.594856
 30
0.0
 11
420.292163
 21
362.202366
 31
0.0
  0
LINE
  5
4FC
100
AcDbEntity
  8
1AL
100
AcDbLine
 10
419.69897
 20
366.378204
 30
0.0
 11
420.849281
 21
363.502219
 31
0.0
  0
LINE
  5
4FD
100
AcDbEntity
  8
1AL
100
AcDbLine
 10
437.553042
 20
370.209302
 30
0.0
 11
441.637355
 21
370.768783
 31
0.0
  0
LINE
  5
4FE
100
AcDbEntity
  8
1AL
100
AcDbLine
 10
438.316209
 20
369.304504
 30
0.0
 11
442.004801
 21
369.809779
 31
0.0
  0
LINE
  5
4FF
100
AcDbEntity
  8
1AL
100
AcDbLine
 10
435.871278
 20
374.414014
 30
0.0
 11
437.553042
 21
370.209302
 31
0.0
  0
LINE
  5
500
100
AcDbEntity
  8
1AL
100
AcDbLine
 10
434.776701
 20
374.457902
 30
0.0
 11
436.389365
 21
370.425954
 31
0.0
  0
ARC
  5
501
100
AcDbEntity
  8
1AL
100
AcDbCircle
 10
438.356923
 20
369.00728
 30
0.0
 40
0.3
100
AcDbArc
 50
97.8
 51
201.8
  0
ARC
  5
502
100
AcDbEntity
  8
1AL
100
AcDbCircle
 10
436.110819
 20
370.314544
 30
0.0
 40
0.3
100
AcDbArc
 50
277.8
 51
21.8
  0
LINE
  5
503
100
AcDbEntity
  8
1AL
100
AcDbLine
 10
430.69139
 20
373.900916
 30
0.0
 11
435.333819
 21
375.757755
 31
0.0
  0
LINE
  5
504
100
AcDbEntity
  8
1AL
100
AcDbLine
 10
431.991244
 20
373.343798
 30
0.0
 11
434.776701
 21
374.457902
 31
0.0
  0
LINE
  5
505
100
AcDbEntity
  8
1AL
100
AcDbLine
 10
430.69139
 20
373.900916
 30
0.0
 11
431.128265
 21
372.808652
 31
0.0
  0
LINE
  5
506
100
AcDbEntity
  8
1AL
100
AcDbLine
 10
431.46344
 20
372.750049
 30
0.0
 11
431.991244
 21
373.343798
 31
0.0
  0
ARC
  5
507
100
AcDbEntity
  8
1AL
100
AcDbCircle
 10
431.313962
 20
372.882925
 30
0.0
 40
0.2
100
AcDbArc
 50
201.8
 51
318.365051
  0
LINE
  5
508
100
AcDbEntity
  8
1AL
100
AcDbLine
 10
437.933527
 20
374.643519
 30
0.0
 11
438.629891
 21
374.922045
 31
0.0
  0
LINE
  5
509
100
AcDbEntity
  8
1AL
100
AcDbLine
 10
437.801331
 20
374.974032
 30
0.0
 11
437.933527
 21
374.643519
 31
0.0
  0
ARC
  5
50A
100
AcDbEntity
  8
1AL
100
AcDbCircle
 10
438.862012
 20
375.014887
 30
0.0
 40
0.25
100
AcDbArc
 50
21.8
 51
201.8
  0
LINE
  5
50B
100
AcDbEntity
  8
1AL
100
AcDbLine
 10
439.094134
 20
375.107729
 30
0.0
 11
439.790498
 21
375.386255
 31
0.0
  0
LINE
  5
50C
100
AcDbEntity
  8
1AL
100
AcDbLine
 10
439.790498
 20
375.386255
 30
0.0
 11
439.714451
 21
375.576386
 31
0.0
  0
ARC
  5
50D
100
AcDbEntity
  8
1AL
100
AcDbCircle
 10
438.971662
 20
375.279292
 30
0.0
 40
0.8
100
AcDbArc
 50
21.8
 51
95.100756
  0
ARC
  5
50E
100
AcDbEntity
  8
1AL
100
AcDbCircle
 10
436.149823
 20
374.525424
 30
0.0
 40
0.3
100
AcDbArc
 50
95.100756
 51
201.8
  0
LINE
  5
50F
100
AcDbEntity
  8
1AL
100
AcDbLine
 10
435.333819
 20
375.757755
 30
0.0
 11
438.900537
 21
376.076124
 31
0.0
  0
LINE
  5
510
100
AcDbEntity
  8
1AL
100
AcDbLine
 10
436.123151
 20
374.824236
 30
0.0
 11
437.801331
 21
374.974032
 31
0.0
  0
LINE
  5
511
100
AcDbEntity
  8
1BUHIN
100
AcDbLine
 10
437.469284
 20
374.457835
 30
0.0
 11
436.912166
 21
373.157982
 31
0.0
  0
LINE
  5
512
100
AcDbEntity
  8
1BUHIN
100
AcDbLine
 10
436.912166
 20
373.157982
 30
0.0
 11
437.283533
 21
372.229496
 31
0.0
  0
LINE
  5
513
100
AcDbEntity
  8
1AL
100
AcDbLine
 10
443.504309
 20
371.486562
 30
0.0
 11
442.575889
 21
373.807776
 31
0.0
  0
LINE
  5
514
100
AcDbEntity
  8
1AL
100
AcDbLine
 10
442.004801
 20
369.809779
 30
0.0
 11
448.163456
 21
372.273065
 31
0.0
  0
LINE
  5
515
100
AcDbEntity
  8
1AL
100
AcDbLine
 10
441.637355
 20
370.768783
 30
0.0
 11
443.494327
 21
371.511519
 31
0.0
  0
LINE
  5
516
100
AcDbEntity
  8
1AL
100
AcDbLine
 10
448.349206
 20
374.501404
 30
0.0
 11
449.168099
 21
374.828938
 31
0.0
  0
ARC
  5
517
100
AcDbEntity
  8
1AL
100
AcDbCircle
 10
448.982415
 20
375.293181
 30
0.0
 40
0.5
100
AcDbArc
 50
291.8
 51
111.8
  0
LINE
  5
518
100
AcDbEntity
  8
1AL
100
AcDbLine
 10
447.404002
 20
375.200372
 30
0.0
 11
448.796731
 21
375.757424
 31
0.0
  0
LINE
  5
519
100
AcDbEntity
  8
1AL
100
AcDbLine
 10
447.404002
 20
375.200372
 30
0.0
 11
447.218252
 21
372.972033
 31
0.0
  0
LINE
  5
51A
100
AcDbEntity
  8
1AL
100
AcDbLine
 10
448.349206
 20
374.501404
 30
0.0
 11
448.163456
 21
372.273065
 31
0.0
  0
LINE
  5
51B
100
AcDbEntity
  8
1AL
100
AcDbLine
 10
444.432795
 20
371.857929
 30
0.0
 11
443.504375
 21
374.179144
 31
0.0
  0
ARC
  5
51C
100
AcDbEntity
  8
1AL
100
AcDbCircle
 10
443.040132
 20
373.99346
 30
0.0
 40
0.5
100
AcDbArc
 50
21.8
 51
201.8
  0
LINE
  5
51D
100
AcDbEntity
  8
1AL
100
AcDbLine
 10
444.432795
 20
371.857929
 30
0.0
 11
447.218252
 21
372.972033
 31
0.0
  0
POINT
  5
51E
100
AcDbEntity
  8
DEFPOINTS
  6
BYBLOCK
 62
     0
100
AcDbPoint
 10
449.446658
 20
375.478865
 30
0.0
  0
LINE
  5
51F
100
AcDbEntity
  8
AHJ
  6
BYBLOCK
 62
     0
100
AcDbLine
 10
433.555515
 20
417.902305
 30
0.0
 11
434.484001
 21
418.273673
 31
0.0
  0
ARC
  5
520
100
AcDbEntity
  8
AHJ
  6
BYBLOCK
 62
     0
100
AcDbCircle
 10
432.627029
 20
417.530937
 30
0.0
 40
0.5
100
AcDbArc
 50
201.8
 51
21.8
  0
ARC
  5
521
100
AcDbEntity
  8
AHJ
  6
BYBLOCK
 62
     0
100
AcDbCircle
 10
432.627029
 20
417.530937
 30
0.0
 40
0.5
100
AcDbArc
 50
21.8
 51
201.8
  0
LINE
  5
522
100
AcDbEntity
  8
1AL
100
AcDbLine
 10
506.168725
 20
404.089696
 30
0.0
 11
507.654197
 21
400.375753
 31
0.0
  0
LINE
  5
523
100
AcDbEntity
  8
1AL
100
AcDbLine
 10
492.241438
 20
398.519179
 30
0.0
 11
506.168725
 21
404.089696
 31
0.0
  0
LINE
  5
524
100
AcDbEntity
  8
0
  6
BYBLOCK
 62
     0
100
AcDbLine
 10
490.755967
 20
402.233122
 30
0.0
 11
476.573049
 21
437.692945
 31
0.0
  0
LINE
  5
525
100
AcDbEntity
  8
0
  6
BYBLOCK
 62
     0
100
AcDbLine
 10
492.79849
 20
397.12645
 30
0.0
 11
476.573049
 21
437.692945
 31
0.0
  0
LINE
  5
526
100
AcDbEntity
  8
ALS
100
AcDbLine
 10
515.639334
 20
410.031714
 30
0.0
 11
473.258237
 21
393.080485
 31
0.0
  0
LINE
  5
527
100
AcDbEntity
  8
ALS
100
AcDbLine
 10
494.933755
 20
387.748783
 30
0.0
 11
478.086019
 21
381.010169
 31
0.0
  0
LINE
  5
528
100
AcDbEntity
  8
ALS
100
AcDbLine
 10
499.761537
 20
375.678467
 30
0.0
 11
482.913801
 21
368.939853
 31
0.0
  0
LINE
  5
529
100
AcDbEntity
  8
1BUHIN
100
AcDbLine
 10
501.340546
 20
400.004518
 30
0.0
 11
474.743708
 21
389.366542
 31
0.0
  0
LINE
  5
52A
100
AcDbEntity
  8
ALS
100
AcDbLine
 10
492.241438
 20
398.519179
 30
0.0
 11
474.000973
 21
391.223513
 31
0.0
  0
LINE
  5
52B
100
AcDbEntity
  8
1BUHIN
100
AcDbLine
 10
502.083282
 20
398.147546
 30
0.0
 11
475.486444
 21
387.50957
 31
0.0
  0
LINE
  5
52C
100
AcDbEntity
  8
1AL
100
AcDbLine
 10
514.338884
 20
386.355591
 30
0.0
 11
516.752775
 21
380.320433
 31
0.0
  0
LINE
  5
52D
100
AcDbEntity
  8
1AL
100
AcDbLine
 10
515.26737
 20
386.726958
 30
0.0
 11
517.681261
 21
380.691801
 31
0.0
  0
LINE
  5
52E
100
AcDbEntity
  8
1AL
100
AcDbLine
 10
514.673049
 20
382.827371
 30
0.0
 11
513.28032
 21
382.270319
 31
0.0
  0
LINE
  5
52F
100
AcDbEntity
  8
1AL
100
AcDbLine
 10
514.673049
 20
382.827371
 30
0.0
 11
515.081553
 21
381.806037
 31
0.0
  0
LINE
  5
530
100
AcDbEntity
  8
1AL
100
AcDbLine
 10
511.924728
 20
381.620419
 30
0.0
 11
507.653998
 21
392.298006
 31
0.0
  0
ARC
  5
531
100
AcDbEntity
  8
1AL
100
AcDbCircle
 10
513.094636
 20
382.734562
 30
0.0
 40
0.5
100
AcDbArc
 50
201.8
 51
291.8
  0
LINE
  5
532
100
AcDbEntity
  8
1AL
100
AcDbLine
 10
514.524502
 20
383.198765
 30
0.0
 11
515.081553
 21
381.806037
 31
0.0
  0
LINE
  5
533
100
AcDbEntity
  8
1AL
100
AcDbLine
 10
514.431726
 20
386.123469
 30
0.0
 11
516.659933
 21
380.552554
 31
0.0
  0
LINE
  5
534
100
AcDbEntity
  8
ALS
100
AcDbLine
 10
492.334181
 20
394.248184
 30
0.0
 11
499.761537
 21
375.678467
 31
0.0
  0
LINE
  5
535
100
AcDbEntity
  8
1AL
100
AcDbLine
 10
515.824289
 20
379.949065
 30
0.0
 11
516.752775
 21
380.320433
 31
0.0
  0
ARC
  5
536
100
AcDbEntity
  8
1AL
100
AcDbCircle
 10
512.853214
 20
381.991787
 30
0.0
 40
1.0
100
AcDbArc
 50
201.8
 51
291.8
  0
LINE
  5
537
100
AcDbEntity
  8
1AL
100
AcDbLine
 10
515.081553
 20
381.806037
 30
0.0
 11
513.224582
 21
381.063301
 31
0.0
  0
LINE
  5
538
100
AcDbEntity
  8
1AL
100
AcDbLine
 10
515.081553
 20
381.806037
 30
0.0
 11
514.153068
 21
381.434669
 31
0.0
  0
LINE
  5
539
100
AcDbEntity
  8
1AL
100
AcDbLine
 10
515.731447
 20
380.181186
 30
0.0
 11
516.659933
 21
380.552554
 31
0.0
  0
LINE
  5
53A
100
AcDbEntity
  8
1AL
100
AcDbLine
 10
496.790992
 20
399.261848
 30
0.0
 11
505.611607
 21
402.789843
 31
0.0
  0
LINE
  5
53B
100
AcDbEntity
  8
1AL
100
AcDbLine
 10
497.25497
 20
388.677203
 30
0.0
 11
507.004071
 21
392.576565
 31
0.0
  0
LINE
  5
53C
100
AcDbEntity
  8
1AL
100
AcDbLine
 10
497.347845
 20
389.791372
 30
0.0
 11
508.025432
 21
394.062102
 31
0.0
  0
ARC
  5
53D
100
AcDbEntity
  8
1AL
100
AcDbCircle
 10
496.048058
 20
393.041073
 30
0.0
 40
0.5
100
AcDbArc
 50
111.8
 51
201.8
  0
LINE
  5
53E
100
AcDbEntity
  8
1AL
100
AcDbLine
 10
495.955116
 20
389.234321
 30
0.0
 11
494.242184
 21
393.516957
 31
0.0
  0
LINE
  5
53F
100
AcDbEntity
  8
1AL
100
AcDbLine
 10
496.697918
 20
390.069931
 30
0.0
 11
495.583815
 21
392.855389
 31
0.0
  0
ARC
  5
540
100
AcDbEntity
  8
1AL
100
AcDbCircle
 10
497.162161
 20
390.255615
 30
0.0
 40
0.5
100
AcDbArc
 50
201.8
 51
291.8
  0
ARC
  5
541
100
AcDbEntity
  8
1AL
100
AcDbCircle
 10
496.883602
 20
389.605688
 30
0.0
 40
1.0
100
AcDbArc
 50
201.8
 51
291.8
  0
LINE
  5
542
100
AcDbEntity
  8
1AL
100
AcDbLine
 10
493.541292
 20
397.962061
 30
0.0
 11
495.862506
 21
398.89048
 31
0.0
  0
ARC
  5
543
100
AcDbEntity
  8
1AL
100
AcDbCircle
 10
504.218349
 20
380.692132
 30
0.0
 40
17.0
100
AcDbArc
 50
96.450523
 51
124.435625
  0
ARC
  5
544
100
AcDbEntity
  8
1AL
100
AcDbCircle
 10
493.262733
 20
397.312134
 30
0.0
 40
0.5
100
AcDbArc
 50
201.8
 51
21.8
  0
LINE
  5
545
100
AcDbEntity
  8
1AL
100
AcDbLine
 10
492.79849
 20
397.12645
 30
0.0
 11
492.241438
 21
398.519179
 31
0.0
  0
LINE
  5
546
100
AcDbEntity
  8
1AL
100
AcDbLine
 10
493.726975
 20
397.497818
 30
0.0
 11
493.541292
 21
397.962061
 31
0.0
  0
ARC
  5
547
100
AcDbEntity
  8
1AL
100
AcDbCircle
 10
495.17067
 20
393.888325
 30
0.0
 40
1.0
100
AcDbArc
 50
124.435625
 51
201.8
  0
POINT
  5
548
100
AcDbEntity
  8
DEFPOINTS
  6
BYBLOCK
 62
     0
100
AcDbPoint
 10
492.241438
 20
398.519179
 30
0.0
  0
POINT
  5
549
100
AcDbEntity
  8
DEFPOINTS
  6
BYBLOCK
 62
     0
100
AcDbPoint
 10
494.283961
 20
393.412507
 30
0.0
  0
ARC
  5
54A
100
AcDbEntity
  8
1AL
100
AcDbCircle
 10
496.512433
 20
398.611921
 30
0.0
 40
0.5
100
AcDbArc
 50
201.8
 51
21.8
  0
LINE
  5
54B
100
AcDbEntity
  8
1AL
100
AcDbLine
 10
496.04819
 20
398.426238
 30
0.0
 11
495.862506
 21
398.89048
 31
0.0
  0
LINE
  5
54C
100
AcDbEntity
  8
1AL
100
AcDbLine
 10
496.976676
 20
398.797605
 30
0.0
 11
496.790992
 21
399.261848
 31
0.0
  0
LINE
  5
54D
100
AcDbEntity
  8
1AL
100
AcDbLine
 10
502.826017
 20
396.290574
 30
0.0
 11
502.308481
 21
397.584509
 31
0.0
  0
LINE
  5
54E
100
AcDbEntity
  8
1AL
100
AcDbLine
 10
495.862374
 20
393.505316
 30
0.0
 11
502.826017
 21
396.290574
 31
0.0
  0
LINE
  5
54F
100
AcDbEntity
  8
1BUHIN
100
AcDbLine
 10
501.340546
 20
400.004518
 30
0.0
 11
502.083282
 21
398.147546
 31
0.0
  0
LINE
  5
550
100
AcDbEntity
  8
1AL
100
AcDbLine
 10
511.336083
 20
393.863129
 30
0.0
 11
512.482045
 21
390.99802
 31
0.0
  0
LINE
  5
551
100
AcDbEntity
  8
1AL
100
AcDbLine
 10
510.253772
 20
393.876352
 30
0.0
 11
513.410398
 21
385.984223
 31
0.0
  0
ARC
  5
552
100
AcDbEntity
  8
1AL
100
AcDbCircle
 10
508.28539
 20
393.412162
 30
0.0
 40
0.7
100
AcDbArc
 50
291.8
 51
111.8
  0
LINE
  5
553
100
AcDbEntity
  8
1AL
100
AcDbLine
 10
508.211182
 20
396.290442
 30
0.0
 11
513.596016
 21
382.827397
 31
0.0
  0
LINE
  5
554
100
AcDbEntity
  8
1AL
100
AcDbLine
 10
510.068088
 20
394.340595
 30
0.0
 11
513.50324
 21
385.752101
 31
0.0
  0
LINE
  5
555
100
AcDbEntity
  8
ACL
  6
CENTER
100
AcDbLine
 10
506.562493
 20
385.937812
 30
0.0
 11
518.394443
 21
390.670255
 31
0.0
  0
LINE
  5
556
100
AcDbEntity
  8
1AL
100
AcDbLine
 10
512.630393
 20
382.548878
 30
0.0
 11
508.545347
 21
392.762222
 31
0.0
  0
ARC
  5
557
100
AcDbEntity
  8
1AL
100
AcDbCircle
 10
507.189755
 20
392.112322
 30
0.0
 40
0.5
100
AcDbArc
 50
21.8
 51
111.8
  0
ARC
  5
558
100
AcDbEntity
  8
1AL
100
AcDbCircle
 10
514.060424
 20
389.744537
 30
0.0
 40
0.5
100
AcDbArc
 50
111.8
 51
201.8
  0
ARC
  5
559
100
AcDbEntity
  8
1AL
100
AcDbCircle
 10
514.617476
 20
388.351809
 30
0.0
 40
0.5
100
AcDbArc
 50
201.8
 51
291.8
  0
LINE
  5
55A
100
AcDbEntity
  8
1AL
100
AcDbLine
 10
512.482045
 20
390.99802
 30
0.0
 11
516.54417
 21
392.622754
 31
0.0
  0
ARC
  5
55B
100
AcDbEntity
  8
1AL
100
AcDbCircle
 10
516.776275
 20
392.04245
 30
0.0
 40
0.625
100
AcDbArc
 50
291.8
 51
111.8
  0
LINE
  5
55C
100
AcDbEntity
  8
1AL
100
AcDbLine
 10
515.26737
 20
386.726958
 30
0.0
 11
518.401009
 21
387.980325
 31
0.0
  0
LINE
  5
55D
100
AcDbEntity
  8
1AL
100
AcDbLine
 10
513.596181
 20
389.558853
 30
0.0
 11
514.153233
 21
388.166125
 31
0.0
  0
LINE
  5
55E
100
AcDbEntity
  8
1AL
100
AcDbLine
 10
514.80316
 20
387.887566
 30
0.0
 11
517.9368
 21
389.140932
 31
0.0
  0
LINE
  5
55F
100
AcDbEntity
  8
1AL
100
AcDbLine
 10
513.87474
 20
390.20878
 30
0.0
 11
517.00838
 21
391.462147
 31
0.0
  0
LINE
  5
560
100
AcDbEntity
  8
1AL
100
AcDbLine
 10
513.410398
 20
385.984223
 30
0.0
 11
514.338884
 21
386.355591
 31
0.0
  0
LINE
  5
561
100
AcDbEntity
  8
1AL
100
AcDbLine
 10
513.50324
 20
385.752101
 30
0.0
 11
514.431726
 21
386.123469
 31
0.0
  0
LINE
  5
562
100
AcDbEntity
  8
1AL
100
AcDbLine
 10
514.524502
 20
383.198765
 30
0.0
 11
513.596016
 21
382.827397
 31
0.0
  0
LINE
  5
563
100
AcDbEntity
  8
1AL
100
AcDbLine
 10
511.089449
 20
395.826133
 30
0.0
 11
510.253772
 21
393.876352
 31
0.0
  0
LINE
  5
564
100
AcDbEntity
  8
1AL
100
AcDbLine
 10
509.975345
 20
398.61159
 30
0.0
 11
511.089449
 21
395.826133
 31
0.0
  0
LINE
  5
565
100
AcDbEntity
  8
1AL
100
AcDbLine
 10
510.346779
 20
400.375687
 30
0.0
 11
512.017934
 21
396.197501
 31
0.0
  0
LINE
  5
566
100
AcDbEntity
  8
1AL
100
AcDbLine
 10
509.975345
 20
398.61159
 30
0.0
 11
510.903765
 21
396.290376
 31
0.0
  0
LINE
  5
567
100
AcDbEntity
  8
1AL
100
AcDbLine
 10
510.903765
 20
396.290376
 30
0.0
 11
510.068088
 21
394.340595
 31
0.0
  0
LINE
  5
568
100
AcDbEntity
  8
1AL
100
AcDbLine
 10
508.582616
 20
398.054539
 30
0.0
 11
509.975345
 21
398.61159
 31
0.0
  0
LINE
  5
569
100
AcDbEntity
  8
1AL
100
AcDbLine
 10
508.211182
 20
396.290442
 30
0.0
 11
508.489728
 21
396.401852
 31
0.0
  0
ARC
  5
56A
100
AcDbEntity
  8
1AL
100
AcDbCircle
 10
508.22977
 20
397.051792
 30
0.0
 40
0.7
100
AcDbArc
 50
291.8
 51
21.8
  0
LINE
  5
56B
100
AcDbEntity
  8
1AL
100
AcDbLine
 10
505.611607
 20
402.789843
 30
0.0
 11
508.211182
 21
396.290442
 31
0.0
  0
LINE
  5
56C
100
AcDbEntity
  8
1AL
100
AcDbLine
 10
508.582616
 20
398.054539
 30
0.0
 11
508.879711
 21
397.31175
 31
0.0
  0
LINE
  5
56D
100
AcDbEntity
  8
1AL
100
AcDbLine
 10
509.975345
 20
398.61159
 30
0.0
 11
509.046859
 21
398.240222
 31
0.0
  0
LINE
  5
56E
100
AcDbEntity
  8
1AL
100
AcDbLine
 10
509.139668
 20
396.66181
 30
0.0
 11
508.211182
 21
396.290442
 31
0.0
  0
LINE
  5
56F
100
AcDbEntity
  8
1AL
100
AcDbLine
 10
508.7683
 20
397.590296
 30
0.0
 11
509.139668
 21
396.66181
 31
0.0
  0
ARC
  5
570
100
AcDbEntity
  8
1AL
100
AcDbCircle
 10
509.232543
 20
397.77598
 30
0.0
 40
0.5
100
AcDbArc
 50
111.8
 51
201.8
  0
ARC
  5
571
100
AcDbEntity
  8
1AL
100
AcDbCircle
 10
514.989076
 20
396.847361
 30
0.0
 40
0.5
100
AcDbArc
 50
291.8
 51
111.8
  0
LINE
  5
572
100
AcDbEntity
  8
1AL
100
AcDbLine
 10
511.845408
 20
395.051473
 30
0.0
 11
511.336083
 21
393.863129
 31
0.0
  0
LINE
  5
573
100
AcDbEntity
  8
1AL
100
AcDbLine
 10
511.845408
 20
395.051473
 30
0.0
 11
515.17476
 21
396.383118
 31
0.0
  0
LINE
  5
574
100
AcDbEntity
  8
1AL
100
AcDbLine
 10
512.017934
 20
396.197501
 30
0.0
 11
514.803392
 21
397.311604
 31
0.0
  0
LINE
  5
575
100
AcDbEntity
  8
0
  6
BYBLOCK
 62
     0
100
AcDbLine
 10
479.321304
 20
436.207314
 30
0.0
 11
501.604964
 21
445.120143
 31
0.0
  0
LINE
  5
576
100
AcDbEntity
  8
AHJ
  6
BYBLOCK
 62
     0
100
AcDbLine
 10
478.392818
 20
435.835947
 30
0.0
 11
479.321304
 21
436.207314
 31
0.0
  0
ARC
  5
577
100
AcDbEntity
  8
AHJ
  6
BYBLOCK
 62
     0
100
AcDbCircle
 10
477.464332
 20
435.464579
 30
0.0
 40
0.5
100
AcDbArc
 50
201.8
 51
21.8
  0
ARC
  5
578
100
AcDbEntity
  8
AHJ
  6
BYBLOCK
 62
     0
100
AcDbCircle
 10
477.464332
 20
435.464579
 30
0.0
 40
0.5
100
AcDbArc
 50
21.8
 51
201.8
  0
ARC
  5
579
100
AcDbEntity
  8
AHJ
  6
BYBLOCK
 62
     0
100
AcDbCircle
 10
477.464332
 20
435.464579
 30
0.0
 40
0.5
100
AcDbArc
 50
21.8
 51
201.8
  0
ARC
  5
57A
100
AcDbEntity
  8
AHJ
  6
BYBLOCK
 62
     0
100
AcDbCircle
 10
477.464332
 20
435.464579
 30
0.0
 40
0.5
100
AcDbArc
 50
201.8
 51
21.8
  0
LINE
  5
57B
100
AcDbEntity
  8
AHJ
  6
BYBLOCK
 62
     0
100
AcDbLine
 10
476.535846
 20
435.093211
 30
0.0
 11
475.607361
 21
434.721843
 31
0.0
  0
POINT
  5
57C
100
AcDbEntity
  8
DEFPOINTS
  6
BYBLOCK
 62
     0
100
AcDbPoint
 10
477.464332
 20
435.464579
 30
0.0
  0
LINE
  5
57D
100
AcDbEntity
  8
1AL
100
AcDbLine
 10
515.267966
 20
410.9602
 30
0.0
 11
515.825018
 21
409.567471
 31
0.0
  0
LINE
  5
57E
100
AcDbEntity
  8
1AL
100
AcDbLine
 10
515.825018
 20
409.567471
 30
0.0
 11
516.753503
 21
409.938839
 31
0.0
  0
LINE
  5
57F
100
AcDbEntity
  8
1AL
100
AcDbLine
 10
516.56782
 20
410.403082
 30
0.0
 11
516.753503
 21
409.938839
 31
0.0
  0
LINE
  5
580
100
AcDbEntity
  8
1AL
100
AcDbLine
 10
517.496305
 20
410.77445
 30
0.0
 11
518.053357
 21
409.381721
 31
0.0
  0
POINT
  5
581
100
AcDbEntity
  8
DEFPOINTS
  6
BYBLOCK
 62
     0
100
AcDbPoint
 10
518.239041
 20
408.917478
 30
0.0
  0
ARC
  5
582
100
AcDbEntity
  8
AHJ
  6
BYBLOCK
 62
     0
100
AcDbCircle
 10
503.461935
 20
445.862878
 30
0.0
 40
0.5
100
AcDbArc
 50
21.8
 51
201.8
  0
ARC
  5
583
100
AcDbEntity
  8
AHJ
  6
BYBLOCK
 62
     0
100
AcDbCircle
 10
503.461935
 20
445.862878
 30
0.0
 40
0.5
100
AcDbArc
 50
201.8
 51
21.8
  0
LINE
  5
584
100
AcDbEntity
  8
AHJ
  6
BYBLOCK
 62
     0
100
AcDbLine
 10
502.53345
 20
445.49151
 30
0.0
 11
501.604964
 21
445.120143
 31
0.0
  0
POINT
  5
585
100
AcDbEntity
  8
DEFPOINTS
  6
BYBLOCK
 62
     0
100
AcDbPoint
 10
503.461935
 20
445.862878
 30
0.0
  0
LINE
  5
586
100
AcDbEntity
  8
ADM
 62
     0
100
AcDbLine
 10
578.031912
 20
367.134556
 30
0.0
 11
599.41693
 21
313.668197
 31
0.0
1001
ACAD
1000
RTLwPs
1070
   158
  0
LINE
  5
587
100
AcDbEntity
  8
1MOKU
100
AcDbLine
 10
520.838616
 20
402.418077
 30
0.0
 11
554.261721
 21
318.854353
 31
0.0
  0
LINE
  5
588
100
AcDbEntity
  8
ALS
100
AcDbLine
 10
557.978049
 20
417.272791
 30
0.0
 11
554.261721
 21
318.854353
 31
0.0
  0
LINE
  5
589
100
AcDbEntity
  8
ALS
100
AcDbLine
 10
520.838616
 20
402.418077
 30
0.0
 11
591.401154
 21
333.709066
 31
0.0
  0
LINE
  5
58A
100
AcDbEntity
  8
1MOKU
100
AcDbLine
 10
557.978049
 20
417.272791
 30
0.0
 11
591.401154
 21
333.709066
 31
0.0
  0
LINE
  5
58B
100
AcDbEntity
  8
ACL
  6
CENTER2
100
AcDbLine
 10
533.375747
 20
424.927974
 30
0.0
 11
582.788288
 21
301.387809
 31
0.0
  0
LINE
  5
58C
100
AcDbEntity
  8
1MOKU
100
AcDbLine
 10
554.261721
 20
318.854353
 30
0.0
 11
591.401154
 21
333.709066
 31
0.0
  0
LINE
  5
58D
100
AcDbEntity
  8
ADM
 62
     0
100
AcDbLine
 10
536.25005
 20
350.423004
 30
0.0
 11
557.635068
 21
296.956644
 31
0.0
1001
ACAD
1000
RTLwPs
1070
   158
  0
LINE
  5
58E
100
AcDbEntity
  8
ADM
 62
     0
100
AcDbLine
 10
555.747192
 20
315.14041
 30
0.0
 11
568.219383
 21
283.95771
 31
0.0
1001
ACAD
1000
RTLwPs
1070
   158
  0
ARC
  5
58F
100
AcDbEntity
  8
AHJ
  6
BYBLOCK
 62
     0
100
AcDbCircle
 10
567.3281
 20
286.186076
 30
0.0
 40
0.5
100
AcDbArc
 50
21.8
 51
201.8
  0
ARC
  5
590
100
AcDbEntity
  8
AHJ
  6
BYBLOCK
 62
     0
100
AcDbCircle
 10
567.3281
 20
286.186076
 30
0.0
 40
0.5
100
AcDbArc
 50
201.8
 51
21.8
  0
LINE
  5
591
100
AcDbEntity
  8
AHJ
  6
BYBLOCK
 62
     0
100
AcDbLine
 10
566.399614
 20
285.814708
 30
0.0
 11
565.471128
 21
285.44334
 31
0.0
  0
ARC
  5
592
100
AcDbEntity
  8
AHJ
  6
BYBLOCK
 62
     0
100
AcDbCircle
 10
556.743785
 20
299.18501
 30
0.0
 40
0.5
100
AcDbArc
 50
21.8
 51
201.8
  0
ARC
  5
593
100
AcDbEntity
  8
AHJ
  6
BYBLOCK
 62
     0
100
AcDbCircle
 10
556.743785
 20
299.18501
 30
0.0
 40
0.5
100
AcDbArc
 50
201.8
 51
21.8
  0
LINE
  5
594
100
AcDbEntity
  8
AHJ
  6
BYBLOCK
 62
     0
100
AcDbLine
 10
555.815299
 20
298.813642
 30
0.0
 11
554.886814
 21
298.442274
 31
0.0
  0
POINT
  5
595
100
AcDbEntity
  8
DEFPOINTS
 62
     0
100
AcDbPoint
 10
534.764579
 20
354.136947
 30
0.0
  0
POINT
  5
596
100
AcDbEntity
  8
DEFPOINTS
 62
     0
100
AcDbPoint
 10
554.261721
 20
318.854353
 30
0.0
  0
LINE
  5
597
100
AcDbEntity
  8
ADM
 62
     0
100
AcDbLine
 10
592.886626
 20
329.995123
 30
0.0
 11
605.358816
 21
298.812423
 31
0.0
1001
ACAD
1000
RTLwPs
1070
   158
  0
ARC
  5
598
100
AcDbEntity
  8
AHJ
  6
BYBLOCK
 62
     0
100
AcDbCircle
 10
604.467533
 20
301.040789
 30
0.0
 40
0.5
100
AcDbArc
 50
201.8
 51
21.8
  0
ARC
  5
599
100
AcDbEntity
  8
AHJ
  6
BYBLOCK
 62
     0
100
AcDbCircle
 10
604.467533
 20
301.040789
 30
0.0
 40
0.5
100
AcDbArc
 50
21.8
 51
201.8
  0
LINE
  5
59A
100
AcDbEntity
  8
AHJ
  6
BYBLOCK
 62
     0
100
AcDbLine
 10
605.396019
 20
301.412157
 30
0.0
 11
606.324504
 21
301.783525
 31
0.0
  0
ARC
  5
59B
100
AcDbEntity
  8
AHJ
  6
BYBLOCK
 62
     0
100
AcDbCircle
 10
598.525647
 20
315.896563
 30
0.0
 40
0.5
100
AcDbArc
 50
201.8
 51
21.8
  0
ARC
  5
59C
100
AcDbEntity
  8
AHJ
  6
BYBLOCK
 62
     0
100
AcDbCircle
 10
598.525647
 20
315.896563
 30
0.0
 40
0.5
100
AcDbArc
 50
21.8
 51
201.8
  0
LINE
  5
59D
100
AcDbEntity
  8
AHJ
  6
BYBLOCK
 62
     0
100
AcDbLine
 10
599.454133
 20
316.26793
 30
0.0
 11
600.382619
 21
316.639298
 31
0.0
  0
POINT
  5
59E
100
AcDbEntity
  8
DEFPOINTS
 62
     0
100
AcDbPoint
 10
598.525647
 20
315.896563
 30
0.0
  0
POINT
  5
59F
100
AcDbEntity
  8
DEFPOINTS
 62
     0
100
AcDbPoint
 10
591.401154
 20
333.709066
 30
0.0
  0
LINE
  5
5A0
100
AcDbEntity
  8
1AL
100
AcDbLine
 10
573.019042
 20
403.902357
 30
0.0
 11
581.653961
 21
407.356077
 31
0.0
  0
LINE
  5
5A1
100
AcDbEntity
  8
1AL
100
AcDbLine
 10
580.075561
 20
407.801785
 30
0.0
 11
581.932533
 21
408.544521
 31
0.0
  0
LINE
  5
5A2
100
AcDbEntity
  8
1AL
100
AcDbLine
 10
573.019042
 20
403.902357
 30
0.0
 11
582.303901
 21
407.616035
 31
0.0
  0
LINE
  5
5A3
100
AcDbEntity
  8
1AL
100
AcDbLine
 10
574.318896
 20
403.345239
 30
0.0
 11
582.675269
 21
406.687549
 31
0.0
  0
LINE
  5
5A4
100
AcDbEntity
  8
1AL
100
AcDbLine
 10
580.260782
 20
388.489465
 30
0.0
 11
571.904409
 21
385.147155
 31
0.0
  0
LINE
  5
5A5
100
AcDbEntity
  8
1AL
100
AcDbLine
 10
580.260782
 20
388.489465
 30
0.0
 11
574.318896
 21
403.345239
 31
0.0
  0
LINE
  5
5A6
100
AcDbEntity
  8
ACL
  6
CENTER2
100
AcDbLine
 10
570.728091
 20
398.139441
 30
0.0
 11
593.482767
 21
407.240662
 31
0.0
  0
LINE
  5
5A7
100
AcDbEntity
  8
ACL
  6
CENTER2
100
AcDbLine
 10
564.312851
 20
414.178685
 30
0.0
 11
587.067527
 21
423.279906
 31
0.0
  0
LINE
  5
5A8
100
AcDbEntity
  8
ALS
  6
HIDDEN
100
AcDbLine
 10
575.247779
 20
419.872101
 30
0.0
 11
601.380374
 21
430.324393
 31
0.0
  0
LINE
  5
5A9
100
AcDbEntity
  8
ALS
100
AcDbLine
 10
579.890209
 20
421.72894
 30
0.0
 11
601.380374
 21
430.324393
 31
0.0
  0
LINE
  5
5AA
100
AcDbEntity
  8
ALS
100
AcDbLine
 10
577.290634
 20
428.228341
 30
0.0
 11
584.71799
 21
409.658624
 31
0.0
  0
LINE
  5
5AB
100
AcDbEntity
  8
ALS
100
AcDbLine
 10
559.092417
 20
425.257663
 30
0.0
 11
597.295328
 21
440.537737
 31
0.0
  0
LINE
  5
5AC
100
AcDbEntity
  8
ALS
100
AcDbLine
 10
536.066022
 20
418.201807
 30
0.0
 11
596.552592
 21
442.394709
 31
0.0
  0
LINE
  5
5AD
100
AcDbEntity
  8
ALS
  6
HIDDEN
100
AcDbLine
 10
578.181585
 20
412.537063
 30
0.0
 11
604.31418
 21
422.989355
 31
0.0
  0
LINE
  5
5AE
100
AcDbEntity
  8
ALS
  6
HIDDEN
100
AcDbLine
 10
575.656284
 20
418.850766
 30
0.0
 11
601.788879
 21
429.303059
 31
0.0
  0
LINE
  5
5AF
100
AcDbEntity
  8
ALS
  6
HIDDEN
100
AcDbLine
 10
578.59009
 20
411.515728
 30
0.0
 11
604.722685
 21
421.968021
 31
0.0
  0
LINE
  5
5B0
100
AcDbEntity
  8
1BUHIN
100
AcDbLine
 10
565.684561
 20
423.586243
 30
0.0
 11
598.780799
 21
436.823794
 31
0.0
  0
LINE
  5
5B1
100
AcDbEntity
  8
1BUHIN
100
AcDbLine
 10
565.870311
 20
425.814582
 30
0.0
 11
598.038064
 21
438.680765
 31
0.0
  0
LINE
  5
5B2
100
AcDbEntity
  8
1AL
100
AcDbLine
 10
565.219788
 20
401.8599
 30
0.0
 11
571.719189
 21
404.459475
 31
0.0
  0
ARC
  5
5B3
100
AcDbEntity
  8
1AL
100
AcDbCircle
 10
523.902632
 20
404.182108
 30
0.0
 40
0.5
100
AcDbArc
 50
201.8
 51
21.8
  0
LINE
  5
5B4
100
AcDbEntity
  8
ACL
  6
CENTER2
100
AcDbLine
 10
523.342634
 20
417.69957
 30
0.0
 11
536.73731
 21
384.21049
 31
0.0
  0
LINE
  5
5B5
100
AcDbEntity
  8
1MOKU
100
AcDbLine
 10
520.838616
 20
402.418077
 30
0.0
 11
557.978049
 21
417.272791
 31
0.0
  0
LINE
  5
5B6
100
AcDbEntity
  8
1AL
100
AcDbLine
 10
524.714263
 20
372.196066
 30
0.0
 11
521.580623
 21
370.942699
 31
0.0
  0
ARC
  5
5B7
100
AcDbEntity
  8
1AL
100
AcDbCircle
 10
522.713275
 20
367.303043
 30
0.0
 40
0.7
100
AcDbArc
 50
201.8
 51
291.8
  0
LINE
  5
5B8
100
AcDbEntity
  8
1AL
100
AcDbLine
 10
520.652137
 20
370.571332
 30
0.0
 11
522.063335
 21
367.043085
 31
0.0
  0
LINE
  5
5B9
100
AcDbEntity
  8
1AL
100
AcDbLine
 10
521.580623
 20
370.942699
 30
0.0
 11
523.251778
 21
366.764513
 31
0.0
  0
LINE
  5
5BA
100
AcDbEntity
  8
1AL
100
AcDbLine
 10
523.251778
 20
366.764513
 30
0.0
 11
522.973232
 21
366.653103
 31
0.0
  0
LINE
  5
5BB
100
AcDbEntity
  8
1AL
100
AcDbLine
 10
520.652137
 20
370.571332
 30
0.0
 11
519.723651
 21
370.199964
 31
0.0
  0
LINE
  5
5BC
100
AcDbEntity
  8
1AL
100
AcDbLine
 10
519.909335
 20
369.735721
 30
0.0
 11
520.837821
 21
370.107089
 31
0.0
  0
LINE
  5
5BD
100
AcDbEntity
  8
1AL
100
AcDbLine
 10
524.551632
 20
366.207395
 30
0.0
 11
523.99458
 21
367.600124
 31
0.0
  0
LINE
  5
5BE
100
AcDbEntity
  8
1AL
100
AcDbLine
 10
522.88041
 20
367.692999
 30
0.0
 11
523.251778
 21
366.764513
 31
0.0
  0
LINE
  5
5BF
100
AcDbEntity
  8
1AL
100
AcDbLine
 10
522.323292
 20
366.393145
 30
0.0
 11
523.251778
 21
366.764513
 31
0.0
  0
LINE
  5
5C0
100
AcDbEntity
  8
1AL
100
AcDbLine
 10
522.88041
 20
367.692999
 30
0.0
 11
523.344653
 21
367.878683
 31
0.0
  0
ARC
  5
5C1
100
AcDbEntity
  8
1AL
100
AcDbCircle
 10
523.530337
 20
367.41444
 30
0.0
 40
0.5
100
AcDbArc
 50
21.8
 51
111.8
  0
LINE
  5
5C2
100
AcDbEntity
  8
1AL
100
AcDbLine
 10
520.466387
 20
368.342992
 30
0.0
 11
521.023439
 21
366.950263
 31
0.0
  0
LINE
  5
5C3
100
AcDbEntity
  8
1AL
100
AcDbLine
 10
520.094953
 20
366.578896
 30
0.0
 11
521.023439
 21
366.950263
 31
0.0
  0
LINE
  5
5C4
100
AcDbEntity
  8
1AL
100
AcDbLine
 10
519.537901
 20
367.971624
 30
0.0
 11
520.466387
 21
368.342992
 31
0.0
  0
LINE
  5
5C5
100
AcDbEntity
  8
1AL
100
AcDbLine
 10
520.094953
 20
366.578896
 30
0.0
 11
520.837689
 21
364.721924
 31
0.0
  0
LINE
  5
5C6
100
AcDbEntity
  8
1AL
100
AcDbLine
 10
520.837689
 20
364.721924
 30
0.0
 11
524.551632
 21
366.207395
 31
0.0
  0
LINE
  5
5C7
100
AcDbEntity
  8
1AL
100
AcDbLine
 10
520.837821
 20
370.107089
 30
0.0
 11
522.323292
 21
366.393145
 31
0.0
  0
ARC
  5
5C8
100
AcDbEntity
  8
1AL
100
AcDbCircle
 10
520.373678
 20
373.960278
 30
0.0
 40
0.5
100
AcDbArc
 50
111.8
 51
201.8
  0
LINE
  5
5C9
100
AcDbEntity
  8
1AL
100
AcDbLine
 10
519.909435
 20
373.774594
 30
0.0
 11
520.466486
 21
372.381866
 31
0.0
  0
LINE
  5
5CA
100
AcDbEntity
  8
1AL
100
AcDbLine
 10
518.702456
 20
375.445882
 30
0.0
 11
522.648521
 21
377.024195
 31
0.0
  0
ARC
  5
5CB
100
AcDbEntity
  8
1AL
100
AcDbCircle
 10
522.927047
 20
376.327831
 30
0.0
 40
0.75
100
AcDbArc
 50
291.8
 51
111.8
  0
LINE
  5
5CC
100
AcDbEntity
  8
1AL
100
AcDbLine
 10
520.187994
 20
374.424521
 30
0.0
 11
523.205573
 21
375.631467
 31
0.0
  0
ARC
  5
5CD
100
AcDbEntity
  8
1AL
100
AcDbCircle
 10
521.116645
 20
381.527345
 30
0.0
 40
0.5
100
AcDbArc
 50
291.8
 51
111.8
  0
ARC
  5
5CE
100
AcDbEntity
  8
1AL
100
AcDbCircle
 10
524.482158
 20
372.776369
 30
0.0
 40
0.625
100
AcDbArc
 50
291.8
 51
111.8
  0
LINE
  5
5CF
100
AcDbEntity
  8
1AL
100
AcDbLine
 10
521.116413
 20
372.103307
 30
0.0
 11
524.250053
 21
373.356673
 31
0.0
  0
ARC
  5
5D0
100
AcDbEntity
  8
1AL
100
AcDbCircle
 10
520.930729
 20
372.56755
 30
0.0
 40
0.5
100
AcDbArc
 50
201.8
 51
291.8
  0
POINT
  5
5D1
100
AcDbEntity
  8
DEFPOINTS
 62
     0
100
AcDbPoint
 10
576.546441
 20
370.8485
 30
0.0
  0
LINE
  5
5D2
100
AcDbEntity
  8
1AL
100
AcDbLine
 10
564.662736
 20
403.252628
 30
0.0
 11
565.219788
 21
401.8599
 31
0.0
  0
LINE
  5
5D3
100
AcDbEntity
  8
1AL
100
AcDbLine
 10
564.66267
 20
400.560046
 30
0.0
 11
572.090557
 21
403.530989
 31
0.0
  0
LINE
  5
5D4
100
AcDbEntity
  8
1AL
100
AcDbLine
 10
563.73425
 20
402.881261
 30
0.0
 11
564.66267
 21
400.560046
 31
0.0
  0
ARC
  5
5D5
100
AcDbEntity
  8
1AL
100
AcDbCircle
 10
564.198493
 20
403.066945
 30
0.0
 40
0.5
100
AcDbArc
 50
21.8
 51
201.8
  0
LINE
  5
5D6
100
AcDbEntity
  8
1AL
100
AcDbLine
 10
573.019042
 20
403.902357
 30
0.0
 11
578.960928
 21
389.046583
 31
0.0
  0
LINE
  5
5D7
100
AcDbEntity
  8
1AL
100
AcDbLine
 10
572.090557
 20
403.530989
 30
0.0
 11
577.661074
 21
389.603701
 31
0.0
  0
LINE
  5
5D8
100
AcDbEntity
  8
1AL
100
AcDbLine
 10
578.960928
 20
389.046583
 30
0.0
 11
573.019042
 21
403.902357
 31
0.0
  0
ARC
  5
5D9
100
AcDbEntity
  8
1AL
100
AcDbCircle
 10
572.740086
 20
387.096935
 30
0.0
 40
0.5
100
AcDbArc
 50
111.8
 51
291.8
  0
LINE
  5
5DA
100
AcDbEntity
  8
1AL
100
AcDbLine
 10
572.461527
 20
386.447008
 30
0.0
 11
572.090159
 21
387.375494
 31
0.0
  0
LINE
  5
5DB
100
AcDbEntity
  8
1AL
100
AcDbLine
 10
573.018645
 20
387.746862
 30
0.0
 11
572.090159
 21
387.375494
 31
0.0
  0
ARC
  5
5DC
100
AcDbEntity
  8
1AL
100
AcDbCircle
 10
572.368718
 20
388.025421
 30
0.0
 40
0.5
100
AcDbArc
 50
21.8
 51
111.8
  0
LINE
  5
5DD
100
AcDbEntity
  8
1AL
100
AcDbLine
 10
572.183034
 20
388.489664
 30
0.0
 11
570.790306
 21
387.932612
 31
0.0
  0
LINE
  5
5DE
100
AcDbEntity
  8
1AL
100
AcDbLine
 10
571.904409
 20
385.147155
 30
0.0
 11
570.790306
 21
387.932612
 31
0.0
  0
LINE
  5
5DF
100
AcDbEntity
  8
ADM
100
AcDbLine
 10
572.362211
 20
385.438956
 30
0.0
 11
572.362211
 21
385.438956
 31
0.0
  0
LINE
  5
5E0
100
AcDbEntity
  8
ADM
100
AcDbLine
 10
571.96778
 20
386.015763
 30
0.0
 11
571.96778
 21
386.015763
 31
0.0
  0
LINE
  5
5E1
100
AcDbEntity
  8
ADM
100
AcDbLine
 10
572.192566
 20
386.677391
 30
0.0
 11
572.192566
 21
386.677391
 31
0.0
  0
LINE
  5
5E2
100
AcDbEntity
  8
ADM
100
AcDbLine
 10
571.573349
 20
386.592569
 30
0.0
 11
571.573349
 21
386.592569
 31
0.0
  0
LINE
  5
5E3
100
AcDbEntity
  8
ADM
100
AcDbLine
 10
571.798136
 20
387.254197
 30
0.0
 11
571.798136
 21
387.254197
 31
0.0
  0
LINE
  5
5E4
100
AcDbEntity
  8
ADM
100
AcDbLine
 10
571.178918
 20
387.169375
 30
0.0
 11
571.178918
 21
387.169375
 31
0.0
  0
LINE
  5
5E5
100
AcDbEntity
  8
ADM
100
AcDbLine
 10
572.022922
 20
387.915826
 30
0.0
 11
572.022922
 21
387.915826
 31
0.0
  0
LINE
  5
5E6
100
AcDbEntity
  8
ADM
100
AcDbLine
 10
571.403705
 20
387.831004
 30
0.0
 11
571.403705
 21
387.831004
 31
0.0
  0
LINE
  5
5E7
100
AcDbEntity
  8
1AL
100
AcDbLine
 10
572.92577
 20
386.632692
 30
0.0
 11
578.960928
 21
389.046583
 31
0.0
  0
LINE
  5
5E8
100
AcDbEntity
  8
1AL
100
AcDbLine
 10
572.554402
 20
387.561178
 30
0.0
 11
577.661074
 21
389.603701
 31
0.0
  0
LINE
  5
5E9
100
AcDbEntity
  8
1AL
100
AcDbLine
 10
573.018645
 20
387.746862
 30
0.0
 11
572.832961
 21
388.211105
 31
0.0
  0
LINE
  5
5EA
100
AcDbEntity
  8
1AL
100
AcDbLine
 10
578.960928
 20
389.046583
 30
0.0
 11
572.461527
 21
386.447008
 31
0.0
  0
LINE
  5
5EB
100
AcDbEntity
  8
ADM
100
AcDbLine
 10
575.063867
 20
386.439874
 30
0.0
 11
575.063867
 21
386.439874
 31
0.0
  0
LINE
  5
5EC
100
AcDbEntity
  8
ADM
100
AcDbLine
 10
574.44465
 20
386.355052
 30
0.0
 11
574.44465
 21
386.355052
 31
0.0
  0
LINE
  5
5ED
100
AcDbEntity
  8
ADM
100
AcDbLine
 10
573.825432
 20
386.270229
 30
0.0
 11
573.825432
 21
386.270229
 31
0.0
  0
LINE
  5
5EE
100
AcDbEntity
  8
ADM
100
AcDbLine
 10
573.206215
 20
386.185407
 30
0.0
 11
573.206215
 21
386.185407
 31
0.0
  0
LINE
  5
5EF
100
AcDbEntity
  8
ADM
100
AcDbLine
 10
572.586997
 20
386.100585
 30
0.0
 11
572.586997
 21
386.100585
 31
0.0
  0
LINE
  5
5F0
100
AcDbEntity
  8
ADM
100
AcDbLine
 10
577.146306
 20
387.355969
 30
0.0
 11
577.146306
 21
387.355969
 31
0.0
  0
LINE
  5
5F1
100
AcDbEntity
  8
ADM
100
AcDbLine
 10
576.527088
 20
387.271147
 30
0.0
 11
576.527088
 21
387.271147
 31
0.0
  0
LINE
  5
5F2
100
AcDbEntity
  8
ADM
100
AcDbLine
 10
575.907871
 20
387.186324
 30
0.0
 11
575.907871
 21
387.186324
 31
0.0
  0
LINE
  5
5F3
100
AcDbEntity
  8
ADM
100
AcDbLine
 10
575.288653
 20
387.101502
 30
0.0
 11
575.288653
 21
387.101502
 31
0.0
  0
LINE
  5
5F4
100
AcDbEntity
  8
ADM
100
AcDbLine
 10
574.669436
 20
387.01668
 30
0.0
 11
574.669436
 21
387.01668
 31
0.0
  0
LINE
  5
5F5
100
AcDbEntity
  8
ADM
100
AcDbLine
 10
574.050219
 20
386.931858
 30
0.0
 11
574.050219
 21
386.931858
 31
0.0
  0
LINE
  5
5F6
100
AcDbEntity
  8
ADM
100
AcDbLine
 10
579.847962
 20
388.356886
 30
0.0
 11
579.847962
 21
388.356886
 31
0.0
  0
LINE
  5
5F7
100
AcDbEntity
  8
ADM
100
AcDbLine
 10
579.228744
 20
388.272064
 30
0.0
 11
579.228744
 21
388.272064
 31
0.0
  0
LINE
  5
5F8
100
AcDbEntity
  8
ADM
100
AcDbLine
 10
578.609527
 20
388.187242
 30
0.0
 11
578.609527
 21
388.187242
 31
0.0
  0
LINE
  5
5F9
100
AcDbEntity
  8
ADM
100
AcDbLine
 10
577.99031
 20
388.10242
 30
0.0
 11
577.99031
 21
388.10242
 31
0.0
  0
LINE
  5
5FA
100
AcDbEntity
  8
ADM
100
AcDbLine
 10
577.371092
 20
388.017597
 30
0.0
 11
577.371092
 21
388.017597
 31
0.0
  0
LINE
  5
5FB
100
AcDbEntity
  8
ADM
100
AcDbLine
 10
576.751875
 20
387.932775
 30
0.0
 11
576.751875
 21
387.932775
 31
0.0
  0
LINE
  5
5FC
100
AcDbEntity
  8
ADM
100
AcDbLine
 10
576.132657
 20
387.847953
 30
0.0
 11
576.132657
 21
387.847953
 31
0.0
  0
LINE
  5
5FD
100
AcDbEntity
  8
ADM
100
AcDbLine
 10
579.453531
 20
388.933693
 30
0.0
 11
579.453531
 21
388.933693
 31
0.0
  0
LINE
  5
5FE
100
AcDbEntity
  8
ADM
100
AcDbLine
 10
578.834313
 20
388.84887
 30
0.0
 11
578.834313
 21
388.84887
 31
0.0
  0
LINE
  5
5FF
100
AcDbEntity
  8
ADM
100
AcDbLine
 10
572.642139
 20
388.000648
 30
0.0
 11
572.642139
 21
388.000648
 31
0.0
  0
LINE
  5
600
100
AcDbEntity
  8
ADM
100
AcDbLine
 10
579.678317
 20
389.595321
 30
0.0
 11
579.678317
 21
389.595321
 31
0.0
  0
LINE
  5
601
100
AcDbEntity
  8
ADM
100
AcDbLine
 10
579.0591
 20
389.510499
 30
0.0
 11
579.0591
 21
389.510499
 31
0.0
  0
LINE
  5
602
100
AcDbEntity
  8
ADM
100
AcDbLine
 10
579.283886
 20
390.172127
 30
0.0
 11
579.283886
 21
390.172127
 31
0.0
  0
LINE
  5
603
100
AcDbEntity
  8
ADM
100
AcDbLine
 10
578.664669
 20
390.087305
 30
0.0
 11
578.664669
 21
390.087305
 31
0.0
  0
LINE
  5
604
100
AcDbEntity
  8
ADM
100
AcDbLine
 10
578.889455
 20
390.748934
 30
0.0
 11
578.889455
 21
390.748934
 31
0.0
  0
LINE
  5
605
100
AcDbEntity
  8
ADM
100
AcDbLine
 10
578.495024
 20
391.32574
 30
0.0
 11
578.495024
 21
391.32574
 31
0.0
  0
LINE
  5
606
100
AcDbEntity
  8
ADM
100
AcDbLine
 10
578.719811
 20
391.987369
 30
0.0
 11
578.719811
 21
391.987369
 31
0.0
  0
LINE
  5
607
100
AcDbEntity
  8
ADM
100
AcDbLine
 10
578.100594
 20
391.902546
 30
0.0
 11
578.100594
 21
391.902546
 31
0.0
  0
LINE
  5
608
100
AcDbEntity
  8
ADM
100
AcDbLine
 10
578.32538
 20
392.564175
 30
0.0
 11
578.32538
 21
392.564175
 31
0.0
  0
LINE
  5
609
100
AcDbEntity
  8
ADM
100
AcDbLine
 10
577.706163
 20
392.479353
 30
0.0
 11
577.706163
 21
392.479353
 31
0.0
  0
LINE
  5
60A
100
AcDbEntity
  8
ADM
100
AcDbLine
 10
577.930949
 20
393.140981
 30
0.0
 11
577.930949
 21
393.140981
 31
0.0
  0
LINE
  5
60B
100
AcDbEntity
  8
ADM
100
AcDbLine
 10
577.536518
 20
393.717787
 30
0.0
 11
577.536518
 21
393.717787
 31
0.0
  0
LINE
  5
60C
100
AcDbEntity
  8
ADM
100
AcDbLine
 10
577.761305
 20
394.379416
 30
0.0
 11
577.761305
 21
394.379416
 31
0.0
  0
LINE
  5
60D
100
AcDbEntity
  8
ADM
100
AcDbLine
 10
577.142087
 20
394.294594
 30
0.0
 11
577.142087
 21
394.294594
 31
0.0
  0
LINE
  5
60E
100
AcDbEntity
  8
ADM
100
AcDbLine
 10
577.366874
 20
394.956222
 30
0.0
 11
577.366874
 21
394.956222
 31
0.0
  0
LINE
  5
60F
100
AcDbEntity
  8
ADM
100
AcDbLine
 10
576.747656
 20
394.8714
 30
0.0
 11
576.747656
 21
394.8714
 31
0.0
  0
LINE
  5
610
100
AcDbEntity
  8
ADM
100
AcDbLine
 10
576.972443
 20
395.533029
 30
0.0
 11
576.972443
 21
395.533029
 31
0.0
  0
LINE
  5
611
100
AcDbEntity
  8
ADM
100
AcDbLine
 10
576.578012
 20
396.109835
 30
0.0
 11
576.578012
 21
396.109835
 31
0.0
  0
LINE
  5
612
100
AcDbEntity
  8
ADM
100
AcDbLine
 10
576.802798
 20
396.771463
 30
0.0
 11
576.802798
 21
396.771463
 31
0.0
  0
LINE
  5
613
100
AcDbEntity
  8
ADM
100
AcDbLine
 10
576.183581
 20
396.686641
 30
0.0
 11
576.183581
 21
396.686641
 31
0.0
  0
LINE
  5
614
100
AcDbEntity
  8
ADM
100
AcDbLine
 10
576.408367
 20
397.34827
 30
0.0
 11
576.408367
 21
397.34827
 31
0.0
  0
LINE
  5
615
100
AcDbEntity
  8
ADM
100
AcDbLine
 10
575.78915
 20
397.263447
 30
0.0
 11
575.78915
 21
397.263447
 31
0.0
  0
LINE
  5
616
100
AcDbEntity
  8
ADM
100
AcDbLine
 10
576.013936
 20
397.925076
 30
0.0
 11
576.013936
 21
397.925076
 31
0.0
  0
LINE
  5
617
100
AcDbEntity
  8
ADM
100
AcDbLine
 10
575.619505
 20
398.501882
 30
0.0
 11
575.619505
 21
398.501882
 31
0.0
  0
LINE
  5
618
100
AcDbEntity
  8
ADM
100
AcDbLine
 10
575.844292
 20
399.163511
 30
0.0
 11
575.844292
 21
399.163511
 31
0.0
  0
LINE
  5
619
100
AcDbEntity
  8
ADM
100
AcDbLine
 10
575.225075
 20
399.078688
 30
0.0
 11
575.225075
 21
399.078688
 31
0.0
  0
LINE
  5
61A
100
AcDbEntity
  8
ADM
100
AcDbLine
 10
575.449861
 20
399.740317
 30
0.0
 11
575.449861
 21
399.740317
 31
0.0
  0
LINE
  5
61B
100
AcDbEntity
  8
ADM
100
AcDbLine
 10
574.830644
 20
399.655495
 30
0.0
 11
574.830644
 21
399.655495
 31
0.0
  0
LINE
  5
61C
100
AcDbEntity
  8
ADM
100
AcDbLine
 10
575.05543
 20
400.317123
 30
0.0
 11
575.05543
 21
400.317123
 31
0.0
  0
LINE
  5
61D
100
AcDbEntity
  8
ADM
100
AcDbLine
 10
574.660999
 20
400.89393
 30
0.0
 11
574.660999
 21
400.89393
 31
0.0
  0
LINE
  5
61E
100
AcDbEntity
  8
ADM
100
AcDbLine
 10
574.885786
 20
401.555558
 30
0.0
 11
574.885786
 21
401.555558
 31
0.0
  0
LINE
  5
61F
100
AcDbEntity
  8
ADM
100
AcDbLine
 10
574.266568
 20
401.470736
 30
0.0
 11
574.266568
 21
401.470736
 31
0.0
  0
LINE
  5
620
100
AcDbEntity
  8
ADM
100
AcDbLine
 10
574.491355
 20
402.132364
 30
0.0
 11
574.491355
 21
402.132364
 31
0.0
  0
LINE
  5
621
100
AcDbEntity
  8
ADM
100
AcDbLine
 10
573.872137
 20
402.047542
 30
0.0
 11
573.872137
 21
402.047542
 31
0.0
  0
LINE
  5
622
100
AcDbEntity
  8
ADM
100
AcDbLine
 10
574.096924
 20
402.709171
 30
0.0
 11
574.096924
 21
402.709171
 31
0.0
  0
LINE
  5
623
100
AcDbEntity
  8
ADM
100
AcDbLine
 10
574.32171
 20
403.370799
 30
0.0
 11
574.32171
 21
403.370799
 31
0.0
  0
LINE
  5
624
100
AcDbEntity
  8
ADM
100
AcDbLine
 10
573.702493
 20
403.285977
 30
0.0
 11
573.702493
 21
403.285977
 31
0.0
  0
LINE
  5
625
100
AcDbEntity
  8
ADM
100
AcDbLine
 10
573.308062
 20
403.862783
 30
0.0
 11
573.308062
 21
403.862783
 31
0.0
  0
LINE
  5
626
100
AcDbEntity
  8
1AL
100
AcDbLine
 10
549.250309
 20
414.858966
 30
0.0
 11
549.714552
 21
415.04465
 31
0.0
  0
LINE
  5
627
100
AcDbEntity
  8
1AL
100
AcDbLine
 10
548.693191
 20
413.559113
 30
0.0
 11
550.085919
 21
414.116164
 31
0.0
  0
LINE
  5
628
100
AcDbEntity
  8
1AL
100
AcDbLine
 10
548.337828
 20
418.143586
 30
0.0
 11
565.315728
 21
420.469269
 31
0.0
  0
LINE
  5
629
100
AcDbEntity
  8
1AL
100
AcDbLine
 10
529.195253
 20
416.530718
 30
0.0
 11
564.552561
 21
421.374066
 31
0.0
  0
LINE
  5
62A
100
AcDbEntity
  8
1AL
100
AcDbLine
 10
529.452617
 20
415.556634
 30
0.0
 11
546.93632
 21
417.951603
 31
0.0
  0
LINE
  5
62B
100
AcDbEntity
  8
1BUHIN
  6
HIDDEN
 48
0.5
100
AcDbLine
 10
530.772302
 20
415.063133
 30
0.0
 11
535.458859
 21
410.560544
 31
0.0
  0
LINE
  5
62C
100
AcDbEntity
  8
1BUHIN
  6
HIDDEN
 48
0.5
100
AcDbLine
 10
530.690255
 20
414.319064
 30
0.0
 11
535.376812
 21
409.816475
 31
0.0
  0
LINE
  5
62D
100
AcDbEntity
  8
ALS
100
AcDbLine
 10
536.066022
 20
418.201807
 30
0.0
 11
533.290574
 21
417.091707
 31
0.0
  0
LINE
  5
62E
100
AcDbEntity
  8
1AL
100
AcDbLine
 10
529.566621
 20
415.602232
 30
0.0
 11
532.723248
 21
407.710102
 31
0.0
  0
ARC
  5
62F
100
AcDbEntity
  8
1BUHIN
  6
HIDDEN
 48
0.5
100
AcDbCircle
 10
529.304632
 20
412.876827
 30
0.0
 40
2.0
100
AcDbArc
 50
46.146917
 51
111.8
  0
LINE
  5
630
100
AcDbEntity
  8
1AL
100
AcDbLine
 10
521.581617
 20
411.331435
 30
0.0
 11
529.009503
 21
414.302378
 31
0.0
  0
LINE
  5
631
100
AcDbEntity
  8
1AL
100
AcDbLine
 10
521.581617
 20
411.331435
 30
0.0
 11
524.366875
 21
404.367792
 31
0.0
  0
LINE
  5
632
100
AcDbEntity
  8
1AL
100
AcDbLine
 10
522.881338
 20
405.389153
 30
0.0
 11
523.438389
 21
403.996424
 31
0.0
  0
LINE
  5
633
100
AcDbEntity
  8
1AL
100
AcDbLine
 10
520.653131
 20
410.960068
 30
0.0
 11
522.50997
 21
406.317638
 31
0.0
  0
LINE
  5
634
100
AcDbEntity
  8
1AL
100
AcDbLine
 10
518.796159
 20
410.217332
 30
0.0
 11
518.981843
 21
409.753089
 31
0.0
  0
LINE
  5
635
100
AcDbEntity
  8
1AL
100
AcDbLine
 10
518.796159
 20
410.217332
 30
0.0
 11
520.653131
 21
410.960068
 31
0.0
  0
LINE
  5
636
100
AcDbEntity
  8
1AL
100
AcDbLine
 10
529.009503
 20
414.302378
 30
0.0
 11
531.794762
 21
407.338734
 31
0.0
  0
ARC
  5
637
100
AcDbEntity
  8
1AL
100
AcDbCircle
 10
532.259005
 20
407.524418
 30
0.0
 40
0.5
100
AcDbArc
 50
201.8
 51
21.8
  0
ARC
  5
638
100
AcDbEntity
  8
1BUHIN
  6
HIDDEN
 48
0.5
100
AcDbCircle
 10
529.386679
 20
413.620896
 30
0.0
 40
2.0
100
AcDbArc
 50
46.146917
 51
111.8
  0
LINE
  5
639
100
AcDbEntity
  8
1AL
100
AcDbLine
 10
546.93632
 20
417.951603
 30
0.0
 11
548.693191
 21
413.559113
 31
0.0
  0
LINE
  5
63A
100
AcDbEntity
  8
1BUHIN
  6
HIDDEN
 48
0.5
100
AcDbLine
 10
537.587218
 20
410.14581
 30
0.0
 11
544.893815
 21
413.06824
 31
0.0
  0
LINE
  5
63B
100
AcDbEntity
  8
1BUHIN
  6
HIDDEN
 48
0.5
100
AcDbLine
 10
537.505171
 20
409.401741
 30
0.0
 11
545.139062
 21
412.455079
 31
0.0
  0
ARC
  5
63C
100
AcDbEntity
  8
1BUHIN
  6
HIDDEN
 48
0.5
100
AcDbCircle
 10
536.844482
 20
412.002781
 30
0.0
 40
2.0
100
AcDbArc
 50
226.146917
 51
291.8
  0
ARC
  5
63D
100
AcDbEntity
  8
1BUHIN
  6
HIDDEN
 48
0.5
100
AcDbCircle
 10
536.762435
 20
411.258712
 30
0.0
 40
2.0
100
AcDbArc
 50
226.146917
 51
291.8
  0
ARC
  5
63E
100
AcDbEntity
  8
1AL
100
AcDbCircle
 10
548.378543
 20
417.846361
 30
0.0
 40
0.3
100
AcDbArc
 50
97.8
 51
201.8
  0
LINE
  5
63F
100
AcDbEntity
  8
1AL
100
AcDbLine
 10
548.099997
 20
417.734951
 30
0.0
 11
549.250309
 21
414.858966
 31
0.0
  0
LINE
  5
640
100
AcDbEntity
  8
1AL
100
AcDbLine
 10
575.80503
 20
426.557119
 30
0.0
 11
575.61928
 21
424.32878
 31
0.0
  0
LINE
  5
641
100
AcDbEntity
  8
1AL
100
AcDbLine
 10
576.750233
 20
425.858151
 30
0.0
 11
576.564483
 21
423.629812
 31
0.0
  0
LINE
  5
642
100
AcDbEntity
  8
1AL
100
AcDbLine
 10
559.092417
 20
425.257663
 30
0.0
 11
563.734847
 21
427.114502
 31
0.0
  0
LINE
  5
643
100
AcDbEntity
  8
1AL
100
AcDbLine
 10
560.392271
 20
424.700545
 30
0.0
 11
563.177729
 21
425.814649
 31
0.0
  0
LINE
  5
644
100
AcDbEntity
  8
1AL
100
AcDbLine
 10
572.833822
 20
423.214676
 30
0.0
 11
571.905403
 21
425.535891
 31
0.0
  0
LINE
  5
645
100
AcDbEntity
  8
1AL
100
AcDbLine
 10
564.272305
 20
425.770761
 30
0.0
 11
565.95407
 21
421.566049
 31
0.0
  0
LINE
  5
646
100
AcDbEntity
  8
1AL
100
AcDbLine
 10
563.177729
 20
425.814649
 30
0.0
 11
564.790393
 21
421.782701
 31
0.0
  0
ARC
  5
647
100
AcDbEntity
  8
1AL
100
AcDbCircle
 10
571.44116
 20
425.350207
 30
0.0
 40
0.5
100
AcDbArc
 50
21.8
 51
201.8
  0
LINE
  5
648
100
AcDbEntity
  8
1BUHIN
100
AcDbLine
 10
565.870311
 20
425.814582
 30
0.0
 11
565.313193
 21
424.514729
 31
0.0
  0
ARC
  5
649
100
AcDbEntity
  8
1AL
100
AcDbCircle
 10
564.511847
 20
421.671291
 30
0.0
 40
0.3
100
AcDbArc
 50
277.8
 51
21.8
  0
ARC
  5
64A
100
AcDbEntity
  8
1AL
100
AcDbCircle
 10
549.900236
 20
414.580407
 30
0.0
 40
0.5
100
AcDbArc
 50
291.8
 51
111.8
  0
LINE
  5
64B
100
AcDbEntity
  8
1AL
100
AcDbLine
 10
559.092417
 20
425.257663
 30
0.0
 11
559.529292
 21
424.165399
 31
0.0
  0
LINE
  5
64C
100
AcDbEntity
  8
1AL
100
AcDbLine
 10
559.864468
 20
424.106796
 30
0.0
 11
560.392271
 21
424.700545
 31
0.0
  0
ARC
  5
64D
100
AcDbEntity
  8
1AL
100
AcDbCircle
 10
559.714989
 20
424.239672
 30
0.0
 40
0.2
100
AcDbArc
 50
201.8
 51
318.365051
  0
POINT
  5
64E
100
AcDbEntity
  8
DEFPOINTS
  6
BYBLOCK
 62
     0
100
AcDbPoint
 10
557.978049
 20
417.272791
 30
0.0
  0
LINE
  5
64F
100
AcDbEntity
  8
1AL
100
AcDbLine
 10
566.479405
 20
420.252617
 30
0.0
 11
572.647675
 21
404.830842
 31
0.0
  0
LINE
  5
650
100
AcDbEntity
  8
1AL
100
AcDbLine
 10
565.315728
 20
420.469269
 30
0.0
 11
571.719189
 21
404.459475
 31
0.0
  0
LINE
  5
651
100
AcDbEntity
  8
1AL
  6
HIDDEN
100
AcDbLine
 10
571.775033
 20
409.974625
 30
0.0
 11
569.249732
 21
416.288328
 31
0.0
  0
LINE
  5
652
100
AcDbEntity
  8
1AL
  6
HIDDEN
100
AcDbLine
 10
567.819893
 20
416.901158
 30
0.0
 11
571.162203
 21
408.544786
 31
0.0
  0
LINE
  5
653
100
AcDbEntity
  8
1AL
  6
HIDDEN
100
AcDbLine
 10
578.181585
 20
412.537063
 30
0.0
 11
571.775033
 21
409.974625
 31
0.0
  0
LINE
  5
654
100
AcDbEntity
  8
1AL
  6
HIDDEN
100
AcDbLine
 10
571.162203
 20
408.544786
 30
0.0
 11
578.59009
 21
411.515728
 31
0.0
  0
LINE
  5
655
100
AcDbEntity
  8
1AL
100
AcDbLine
 10
578.590024
 20
408.823146
 30
0.0
 11
579.147075
 21
407.430417
 31
0.0
  0
LINE
  5
656
100
AcDbEntity
  8
1AL
100
AcDbLine
 10
579.51851
 20
409.194514
 30
0.0
 11
580.075561
 21
407.801785
 31
0.0
  0
ARC
  5
657
100
AcDbEntity
  8
1AL
100
AcDbCircle
 10
579.054267
 20
409.00883
 30
0.0
 40
0.5
100
AcDbArc
 50
21.8
 51
201.8
  0
LINE
  5
658
100
AcDbEntity
  8
1AL
100
AcDbLine
 10
572.647675
 20
404.830842
 30
0.0
 11
579.147075
 21
407.430417
 31
0.0
  0
LINE
  5
659
100
AcDbEntity
  8
1AL
  6
HIDDEN
100
AcDbLine
 10
578.59009
 20
411.515728
 30
0.0
 11
578.181585
 21
412.537063
 31
0.0
  0
LINE
  5
65A
100
AcDbEntity
  8
ADM
100
AcDbLine
 10
576.404149
 20
404.286894
 30
0.0
 11
576.404149
 21
404.286894
 31
0.0
  0
LINE
  5
65B
100
AcDbEntity
  8
ADM
100
AcDbLine
 10
575.784931
 20
404.202072
 30
0.0
 11
575.784931
 21
404.202072
 31
0.0
  0
LINE
  5
65C
100
AcDbEntity
  8
ADM
100
AcDbLine
 10
575.165714
 20
404.11725
 30
0.0
 11
575.165714
 21
404.11725
 31
0.0
  0
LINE
  5
65D
100
AcDbEntity
  8
ADM
100
AcDbLine
 10
574.546497
 20
404.032428
 30
0.0
 11
574.546497
 21
404.032428
 31
0.0
  0
LINE
  5
65E
100
AcDbEntity
  8
ADM
100
AcDbLine
 10
573.927279
 20
403.947605
 30
0.0
 11
573.927279
 21
403.947605
 31
0.0
  0
LINE
  5
65F
100
AcDbEntity
  8
ADM
100
AcDbLine
 10
579.105805
 20
405.287812
 30
0.0
 11
579.105805
 21
405.287812
 31
0.0
  0
LINE
  5
660
100
AcDbEntity
  8
ADM
100
AcDbLine
 10
578.486588
 20
405.20299
 30
0.0
 11
578.486588
 21
405.20299
 31
0.0
  0
LINE
  5
661
100
AcDbEntity
  8
ADM
100
AcDbLine
 10
577.86737
 20
405.118167
 30
0.0
 11
577.86737
 21
405.118167
 31
0.0
  0
LINE
  5
662
100
AcDbEntity
  8
ADM
100
AcDbLine
 10
577.248153
 20
405.033345
 30
0.0
 11
577.248153
 21
405.033345
 31
0.0
  0
LINE
  5
663
100
AcDbEntity
  8
ADM
100
AcDbLine
 10
576.628935
 20
404.948523
 30
0.0
 11
576.628935
 21
404.948523
 31
0.0
  0
LINE
  5
664
100
AcDbEntity
  8
ADM
100
AcDbLine
 10
576.009718
 20
404.863701
 30
0.0
 11
576.009718
 21
404.863701
 31
0.0
  0
LINE
  5
665
100
AcDbEntity
  8
ADM
100
AcDbLine
 10
575.390501
 20
404.778878
 30
0.0
 11
575.390501
 21
404.778878
 31
0.0
  0
LINE
  5
666
100
AcDbEntity
  8
ADM
100
AcDbLine
 10
579.949809
 20
406.034263
 30
0.0
 11
579.949809
 21
406.034263
 31
0.0
  0
LINE
  5
667
100
AcDbEntity
  8
ADM
100
AcDbLine
 10
579.330591
 20
405.94944
 30
0.0
 11
579.330591
 21
405.94944
 31
0.0
  0
LINE
  5
668
100
AcDbEntity
  8
ADM
100
AcDbLine
 10
578.711374
 20
405.864618
 30
0.0
 11
578.711374
 21
405.864618
 31
0.0
  0
LINE
  5
669
100
AcDbEntity
  8
ADM
100
AcDbLine
 10
578.092157
 20
405.779796
 30
0.0
 11
578.092157
 21
405.779796
 31
0.0
  0
LINE
  5
66A
100
AcDbEntity
  8
1AL
100
AcDbLine
 10
570.405828
 20
421.166526
 30
0.0
 11
576.564483
 21
423.629812
 31
0.0
  0
LINE
  5
66B
100
AcDbEntity
  8
1AL
  6
HIDDEN
100
AcDbLine
 10
575.247779
 20
419.872101
 30
0.0
 11
567.819893
 21
416.901158
 31
0.0
  0
LINE
  5
66C
100
AcDbEntity
  8
1AL
  6
HIDDEN
100
AcDbLine
 10
569.249732
 20
416.288328
 30
0.0
 11
575.656284
 21
418.850766
 31
0.0
  0
LINE
  5
66D
100
AcDbEntity
  8
1AL
100
AcDbLine
 10
571.905336
 20
422.843308
 30
0.0
 11
570.976917
 21
425.164523
 31
0.0
  0
LINE
  5
66E
100
AcDbEntity
  8
1AL
100
AcDbLine
 10
570.038382
 20
422.12553
 30
0.0
 11
571.895354
 21
422.868266
 31
0.0
  0
ARC
  5
66F
100
AcDbEntity
  8
1AL
100
AcDbCircle
 10
566.757951
 20
420.364027
 30
0.0
 40
0.3
100
AcDbArc
 50
97.8
 51
201.8
  0
LINE
  5
670
100
AcDbEntity
  8
1AL
100
AcDbLine
 10
565.95407
 20
421.566049
 30
0.0
 11
570.038382
 21
422.12553
 31
0.0
  0
LINE
  5
671
100
AcDbEntity
  8
1AL
100
AcDbLine
 10
566.717236
 20
420.661251
 30
0.0
 11
570.405828
 21
421.166526
 31
0.0
  0
LINE
  5
672
100
AcDbEntity
  8
1BUHIN
100
AcDbLine
 10
565.313193
 20
424.514729
 30
0.0
 11
565.684561
 21
423.586243
 31
0.0
  0
LINE
  5
673
100
AcDbEntity
  8
1AL
100
AcDbLine
 10
572.833822
 20
423.214676
 30
0.0
 11
575.61928
 21
424.32878
 31
0.0
  0
LINE
  5
674
100
AcDbEntity
  8
1AL
  6
HIDDEN
100
AcDbLine
 10
575.656284
 20
418.850766
 30
0.0
 11
575.247779
 21
419.872101
 31
0.0
  0
LINE
  5
675
100
AcDbEntity
  8
1AL
100
AcDbLine
 10
563.734847
 20
427.114502
 30
0.0
 11
567.301564
 21
427.432871
 31
0.0
  0
LINE
  5
676
100
AcDbEntity
  8
1AL
100
AcDbLine
 10
564.524178
 20
426.180983
 30
0.0
 11
566.202358
 21
426.330779
 31
0.0
  0
ARC
  5
677
100
AcDbEntity
  8
1AL
100
AcDbCircle
 10
564.550851
 20
425.882171
 30
0.0
 40
0.3
100
AcDbArc
 50
95.100756
 51
201.8
  0
LINE
  5
678
100
AcDbEntity
  8
1AL
100
AcDbLine
 10
566.334554
 20
426.000266
 30
0.0
 11
567.030918
 21
426.278792
 31
0.0
  0
LINE
  5
679
100
AcDbEntity
  8
1AL
100
AcDbLine
 10
566.202358
 20
426.330779
 30
0.0
 11
566.334554
 21
426.000266
 31
0.0
  0
ARC
  5
67A
100
AcDbEntity
  8
1AL
100
AcDbCircle
 10
567.26304
 20
426.371634
 30
0.0
 40
0.25
100
AcDbArc
 50
21.8
 51
201.8
  0
LINE
  5
67B
100
AcDbEntity
  8
1AL
100
AcDbLine
 10
567.495161
 20
426.464476
 30
0.0
 11
568.191526
 21
426.743002
 31
0.0
  0
LINE
  5
67C
100
AcDbEntity
  8
1AL
100
AcDbLine
 10
568.191526
 20
426.743002
 30
0.0
 11
568.115479
 21
426.933133
 31
0.0
  0
ARC
  5
67D
100
AcDbEntity
  8
1AL
100
AcDbCircle
 10
567.37269
 20
426.636039
 30
0.0
 40
0.8
100
AcDbArc
 50
21.8
 51
95.100756
  0
LINE
  5
67E
100
AcDbEntity
  8
1AL
100
AcDbLine
 10
575.80503
 20
426.557119
 30
0.0
 11
577.197759
 21
427.114171
 31
0.0
  0
LINE
  5
67F
100
AcDbEntity
  8
1AL
100
AcDbLine
 10
576.750233
 20
425.858151
 30
0.0
 11
577.569126
 21
426.185685
 31
0.0
  0
ARC
  5
680
100
AcDbEntity
  8
1AL
100
AcDbCircle
 10
577.383443
 20
426.649928
 30
0.0
 40
0.5
100
AcDbArc
 50
291.8
 51
111.8
  0
POINT
  5
681
100
AcDbEntity
  8
DEFPOINTS
  6
BYBLOCK
 62
     0
100
AcDbPoint
 10
578.404737
 20
425.442883
 30
0.0
  0
POINT
  5
682
100
AcDbEntity
  8
DEFPOINTS
  6
BYBLOCK
 62
     0
100
AcDbPoint
 10
577.847685
 20
426.835612
 30
0.0
  0
LINE
  5
683
100
AcDbEntity
  8
ALS
100
AcDbLine
 10
580.260782
 20
388.489465
 30
0.0
 11
612.892777
 21
401.541332
 31
0.0
  0
LINE
  5
684
100
AcDbEntity
  8
ALS
100
AcDbLine
 10
608.993614
 20
419.368181
 30
0.0
 11
628.162565
 21
427.035214
 31
0.0
  0
LINE
  5
685
100
AcDbEntity
  8
ALS
  6
HIDDEN
100
AcDbLine
 10
607.099638
 20
424.103458
 30
0.0
 11
627.661317
 21
432.327544
 31
0.0
  0
LINE
  5
686
100
AcDbEntity
  8
ALS
  6
HIDDEN
100
AcDbLine
 10
607.508142
 20
423.082124
 30
0.0
 11
628.069822
 21
431.306209
 31
0.0
  0
LINE
  5
687
100
AcDbEntity
  8
ALS
100
AcDbLine
 10
604.165832
 20
431.438497
 30
0.0
 11
623.334783
 21
439.10553
 31
0.0
  0
LINE
  5
688
100
AcDbEntity
  8
ALS
  6
HIDDEN
100
AcDbLine
 10
604.574336
 20
430.417162
 30
0.0
 11
625.136016
 21
438.641247
 31
0.0
  0
LINE
  5
689
100
AcDbEntity
  8
ALS
  6
HIDDEN
100
AcDbLine
 10
604.165832
 20
431.438497
 30
0.0
 11
624.727511
 21
439.662582
 31
0.0
  0
LINE
  5
68A
100
AcDbEntity
  8
ALS
100
AcDbLine
 10
584.71799
 20
409.658624
 30
0.0
 11
606.208156
 21
418.254077
 31
0.0
  0
LINE
  5
68B
100
AcDbEntity
  8
1AL
100
AcDbLine
 10
581.932533
 20
408.544521
 30
0.0
 11
582.043943
 21
408.265975
 31
0.0
  0
ARC
  5
68C
100
AcDbEntity
  8
1AL
100
AcDbCircle
 10
581.394003
 20
408.006017
 30
0.0
 40
0.7
100
AcDbArc
 50
291.8
 51
21.8
  0
ARC
  5
68D
100
AcDbEntity
  8
1AL
100
AcDbCircle
 10
581.282606
 20
408.82308
 30
0.0
 40
0.5
100
AcDbArc
 50
111.8
 51
201.8
  0
LINE
  5
68E
100
AcDbEntity
  8
1AL
100
AcDbLine
 10
581.096922
 20
409.287323
 30
0.0
 11
582.489651
 21
409.844374
 31
0.0
  0
LINE
  5
68F
100
AcDbEntity
  8
1AL
100
AcDbLine
 10
583.975122
 20
406.130431
 30
0.0
 11
584.439365
 21
406.316115
 31
0.0
  0
ARC
  5
690
100
AcDbEntity
  8
1AL
100
AcDbCircle
 10
584.625049
 20
405.851872
 30
0.0
 40
0.5
100
AcDbArc
 50
291.8
 51
111.8
  0
LINE
  5
691
100
AcDbEntity
  8
1AL
100
AcDbLine
 10
581.932533
 20
408.544521
 30
0.0
 11
582.303901
 21
407.616035
 31
0.0
  0
LINE
  5
692
100
AcDbEntity
  8
1AL
100
AcDbLine
 10
581.004047
 20
408.173153
 30
0.0
 11
581.932533
 21
408.544521
 31
0.0
  0
LINE
  5
693
100
AcDbEntity
  8
1AL
100
AcDbLine
 10
582.675269
 20
406.687549
 30
0.0
 11
583.418004
 21
404.830577
 31
0.0
  0
LINE
  5
694
100
AcDbEntity
  8
1AL
100
AcDbLine
 10
583.418004
 20
404.830577
 30
0.0
 11
584.810733
 21
405.387629
 31
0.0
  0
LINE
  5
695
100
AcDbEntity
  8
1AL
100
AcDbLine
 10
580.818363
 20
408.637396
 30
0.0
 11
581.004047
 21
408.173153
 31
0.0
  0
LINE
  5
696
100
AcDbEntity
  8
1AL
100
AcDbLine
 10
582.489651
 20
409.844374
 30
0.0
 11
583.975122
 21
406.130431
 31
0.0
  0
LINE
  5
697
100
AcDbEntity
  8
ADM
100
AcDbLine
 10
584.453975
 20
405.389583
 30
0.0
 11
584.453975
 21
405.389583
 31
0.0
  0
LINE
  5
698
100
AcDbEntity
  8
ADM
100
AcDbLine
 10
583.834758
 20
405.304761
 30
0.0
 11
583.834758
 21
405.304761
 31
0.0
  0
LINE
  5
699
100
AcDbEntity
  8
ADM
100
AcDbLine
 10
584.678762
 20
406.051212
 30
0.0
 11
584.678762
 21
406.051212
 31
0.0
  0
LINE
  5
69A
100
AcDbEntity
  8
ADM
100
AcDbLine
 10
584.059544
 20
405.96639
 30
0.0
 11
584.059544
 21
405.96639
 31
0.0
  0
LINE
  5
69B
100
AcDbEntity
  8
ADM
100
AcDbLine
 10
583.440327
 20
405.881567
 30
0.0
 11
583.440327
 21
405.881567
 31
0.0
  0
LINE
  5
69C
100
AcDbEntity
  8
ADM
100
AcDbLine
 10
583.665113
 20
406.543196
 30
0.0
 11
583.665113
 21
406.543196
 31
0.0
  0
LINE
  5
69D
100
AcDbEntity
  8
ADM
100
AcDbLine
 10
583.045896
 20
406.458374
 30
0.0
 11
583.045896
 21
406.458374
 31
0.0
  0
LINE
  5
69E
100
AcDbEntity
  8
ADM
100
AcDbLine
 10
581.188244
 20
406.203907
 30
0.0
 11
581.188244
 21
406.203907
 31
0.0
  0
LINE
  5
69F
100
AcDbEntity
  8
ADM
100
AcDbLine
 10
580.569026
 20
406.119085
 30
0.0
 11
580.569026
 21
406.119085
 31
0.0
  0
LINE
  5
6A0
100
AcDbEntity
  8
ADM
100
AcDbLine
 10
583.270682
 20
407.120002
 30
0.0
 11
583.270682
 21
407.120002
 31
0.0
  0
LINE
  5
6A1
100
AcDbEntity
  8
ADM
100
AcDbLine
 10
582.651465
 20
407.03518
 30
0.0
 11
582.651465
 21
407.03518
 31
0.0
  0
LINE
  5
6A2
100
AcDbEntity
  8
ADM
100
AcDbLine
 10
582.032247
 20
406.950358
 30
0.0
 11
582.032247
 21
406.950358
 31
0.0
  0
LINE
  5
6A3
100
AcDbEntity
  8
ADM
100
AcDbLine
 10
581.41303
 20
406.865536
 30
0.0
 11
581.41303
 21
406.865536
 31
0.0
  0
LINE
  5
6A4
100
AcDbEntity
  8
ADM
100
AcDbLine
 10
580.793813
 20
406.780713
 30
0.0
 11
580.793813
 21
406.780713
 31
0.0
  0
LINE
  5
6A5
100
AcDbEntity
  8
ADM
100
AcDbLine
 10
580.174595
 20
406.695891
 30
0.0
 11
580.174595
 21
406.695891
 31
0.0
  0
LINE
  5
6A6
100
AcDbEntity
  8
ADM
100
AcDbLine
 10
582.876251
 20
407.696809
 30
0.0
 11
582.876251
 21
407.696809
 31
0.0
  0
LINE
  5
6A7
100
AcDbEntity
  8
ADM
100
AcDbLine
 10
582.48182
 20
408.273615
 30
0.0
 11
582.48182
 21
408.273615
 31
0.0
  0
LINE
  5
6A8
100
AcDbEntity
  8
ADM
100
AcDbLine
 10
582.706607
 20
408.935243
 30
0.0
 11
582.706607
 21
408.935243
 31
0.0
  0
LINE
  5
6A9
100
AcDbEntity
  8
ADM
100
AcDbLine
 10
582.087389
 20
408.850421
 30
0.0
 11
582.087389
 21
408.850421
 31
0.0
  0
LINE
  5
6AA
100
AcDbEntity
  8
ADM
100
AcDbLine
 10
581.468172
 20
408.765599
 30
0.0
 11
581.468172
 21
408.765599
 31
0.0
  0
LINE
  5
6AB
100
AcDbEntity
  8
ADM
100
AcDbLine
 10
580.848955
 20
408.680777
 30
0.0
 11
580.848955
 21
408.680777
 31
0.0
  0
LINE
  5
6AC
100
AcDbEntity
  8
ADM
100
AcDbLine
 10
582.312176
 20
409.51205
 30
0.0
 11
582.312176
 21
409.51205
 31
0.0
  0
LINE
  5
6AD
100
AcDbEntity
  8
ADM
100
AcDbLine
 10
581.692959
 20
409.427227
 30
0.0
 11
581.692959
 21
409.427227
 31
0.0
  0
LINE
  5
6AE
100
AcDbEntity
  8
1AL
  6
HIDDEN
100
AcDbLine
 10
631.597883
 20
425.178176
 30
0.0
 11
641.346984
 21
429.077539
 31
0.0
  0
ARC
  5
6AF
100
AcDbEntity
  8
1AL
  6
HIDDEN
100
AcDbCircle
 10
631.226515
 20
426.106662
 30
0.0
 40
1.0
100
AcDbArc
 50
201.8
 51
291.8
  0
LINE
  5
6B0
100
AcDbEntity
  8
1AL
100
AcDbLine
 10
625.655997
 20
440.03395
 30
0.0
 11
635.405099
 21
443.933312
 31
0.0
  0
LINE
  5
6B1
100
AcDbEntity
  8
1AL
100
AcDbLine
 10
625.748872
 20
441.148119
 30
0.0
 11
636.426459
 21
445.418849
 31
0.0
  0
LINE
  5
6B2
100
AcDbEntity
  8
1AL
  6
HIDDEN
100
AcDbLine
 10
624.727511
 20
439.662582
 30
0.0
 11
632.155398
 21
442.633524
 31
0.0
  0
LINE
  5
6B3
100
AcDbEntity
  8
1AL
  6
HIDDEN
100
AcDbLine
 10
631.542568
 20
441.203685
 30
0.0
 11
625.136016
 21
438.641247
 31
0.0
  0
LINE
  5
6B4
100
AcDbEntity
  8
ALS
100
AcDbLine
 10
620.735208
 20
445.604931
 30
0.0
 11
628.162565
 21
427.035214
 31
0.0
  0
ARC
  5
6B5
100
AcDbEntity
  8
1AL
100
AcDbCircle
 10
623.571697
 20
445.245072
 30
0.0
 40
1.0
100
AcDbArc
 50
124.435625
 51
201.8
  0
LINE
  5
6B6
100
AcDbEntity
  8
1AL
100
AcDbLine
 10
625.098946
 20
441.426678
 30
0.0
 11
623.984842
 21
444.212136
 31
0.0
  0
ARC
  5
6B7
100
AcDbEntity
  8
1AL
100
AcDbCircle
 10
624.449085
 20
444.39782
 30
0.0
 40
0.5
100
AcDbArc
 50
111.8
 51
201.8
  0
ARC
  5
6B8
100
AcDbEntity
  8
1AL
100
AcDbCircle
 10
625.563188
 20
441.612362
 30
0.0
 40
0.5
100
AcDbArc
 50
201.8
 51
291.8
  0
ARC
  5
6B9
100
AcDbEntity
  8
1AL
100
AcDbCircle
 10
625.284629
 20
440.962435
 30
0.0
 40
1.0
100
AcDbArc
 50
201.8
 51
291.8
  0
LINE
  5
6BA
100
AcDbEntity
  8
1AL
100
AcDbLine
 10
624.356144
 20
440.591068
 30
0.0
 11
622.643211
 21
444.873704
 31
0.0
  0
POINT
  5
6BB
100
AcDbEntity
  8
DEFPOINTS
  6
BYBLOCK
 62
     0
100
AcDbPoint
 10
622.684988
 20
444.769254
 30
0.0
  0
LINE
  5
6BC
100
AcDbEntity
  8
1AL
  6
HIDDEN
100
AcDbLine
 10
625.136016
 20
438.641247
 30
0.0
 11
624.727511
 21
439.662582
 31
0.0
  0
LINE
  5
6BD
100
AcDbEntity
  8
1AL
100
AcDbLine
 10
641.031421
 20
433.905625
 30
0.0
 11
636.946374
 21
444.118969
 31
0.0
  0
LINE
  5
6BE
100
AcDbEntity
  8
1AL
100
AcDbLine
 10
640.325755
 20
432.977166
 30
0.0
 11
636.055025
 21
443.654753
 31
0.0
  0
LINE
  5
6BF
100
AcDbEntity
  8
1AL
  6
HIDDEN
100
AcDbLine
 10
634.06787
 20
434.889982
 30
0.0
 11
631.542568
 21
441.203685
 31
0.0
  0
LINE
  5
6C0
100
AcDbEntity
  8
1AL
  6
HIDDEN
100
AcDbLine
 10
632.155398
 20
442.633524
 30
0.0
 11
635.497709
 21
434.277152
 31
0.0
  0
ARC
  5
6C1
100
AcDbEntity
  8
1AL
  6
HIDDEN
100
AcDbCircle
 10
638.561261
 20
417.193105
 30
0.0
 40
17.0
100
AcDbArc
 50
96.450523
 51
124.435625
  0
LINE
  5
6C2
100
AcDbEntity
  8
1AL
  6
HIDDEN
100
AcDbLine
 10
630.205286
 20
430.006289
 30
0.0
 11
637.16893
 21
432.791548
 31
0.0
  0
LINE
  5
6C3
100
AcDbEntity
  8
1AL
  6
HIDDEN
100
AcDbLine
 10
635.497709
 20
434.277152
 30
0.0
 11
628.069822
 21
431.306209
 31
0.0
  0
LINE
  5
6C4
100
AcDbEntity
  8
1AL
  6
HIDDEN
100
AcDbLine
 10
628.585097
 20
430.017931
 30
0.0
 11
630.298029
 21
425.735294
 31
0.0
  0
ARC
  5
6C5
100
AcDbEntity
  8
1AL
  6
HIDDEN
100
AcDbCircle
 10
629.513583
 20
430.389298
 30
0.0
 40
1.0
100
AcDbArc
 50
124.435625
 51
201.8
  0
ARC
  5
6C6
100
AcDbEntity
  8
1AL
  6
HIDDEN
100
AcDbCircle
 10
630.39097
 20
429.542046
 30
0.0
 40
0.5
100
AcDbArc
 50
111.8
 51
201.8
  0
LINE
  5
6C7
100
AcDbEntity
  8
1AL
  6
HIDDEN
100
AcDbLine
 10
631.040831
 20
426.570905
 30
0.0
 11
629.926727
 21
429.356363
 31
0.0
  0
ARC
  5
6C8
100
AcDbEntity
  8
1AL
  6
HIDDEN
100
AcDbCircle
 10
631.505074
 20
426.756589
 30
0.0
 40
0.5
100
AcDbArc
 50
201.8
 51
291.8
  0
LINE
  5
6C9
100
AcDbEntity
  8
1AL
  6
HIDDEN
100
AcDbLine
 10
627.661317
 20
432.327544
 30
0.0
 11
634.06787
 21
434.889982
 31
0.0
  0
LINE
  5
6CA
100
AcDbEntity
  8
1AL
  6
HIDDEN
100
AcDbLine
 10
628.069822
 20
431.306209
 30
0.0
 11
627.661317
 21
432.327544
 31
0.0
  0
ARC
  5
6CB
100
AcDbEntity
  8
1AL
100
AcDbCircle
 10
641.254241
 20
433.348534
 30
0.0
 40
1.0
100
AcDbArc
 50
201.8
 51
291.8
  0
ARC
  5
6CC
100
AcDbEntity
  8
1AL
100
AcDbCircle
 10
641.495663
 20
434.091309
 30
0.0
 40
0.5
100
AcDbArc
 50
201.8
 51
291.8
  0
LINE
  5
6CD
100
AcDbEntity
  8
1AL
  6
HIDDEN
100
AcDbLine
 10
637.16893
 20
432.791548
 30
0.0
 11
636.651393
 21
434.085483
 31
0.0
  0
LINE
  5
6CE
100
AcDbEntity
  8
1AL
100
AcDbLine
 10
640.246435
 20
446.408219
 30
0.0
 11
639.73711
 21
445.219876
 31
0.0
  0
LINE
  5
6CF
100
AcDbEntity
  8
1AL
100
AcDbLine
 10
639.73711
 20
445.219876
 30
0.0
 11
640.883072
 21
442.354767
 31
0.0
  0
LINE
  5
6D0
100
AcDbEntity
  8
1AL
100
AcDbLine
 10
638.654799
 20
445.233099
 30
0.0
 11
641.811426
 21
437.34097
 31
0.0
  0
ARC
  5
6D1
100
AcDbEntity
  8
1AL
100
AcDbCircle
 10
636.686417
 20
444.768909
 30
0.0
 40
0.7
100
AcDbArc
 50
291.8
 51
111.8
  0
ARC
  5
6D2
100
AcDbEntity
  8
1AL
100
AcDbCircle
 10
635.590782
 20
443.469069
 30
0.0
 40
0.5
100
AcDbArc
 50
21.8
 51
111.8
  0
TEXT
  5
6D3
100
AcDbEntity
  8
0
 62
     0
100
AcDbText
 10
570.898938
 20
474.9898
 30
0.0
 40
6.0
  1
H-50
 50
21.8
100
AcDbText
  0
LINE
  5
6D4
100
AcDbEntity
  8
0
  6
BYBLOCK
 62
     0
100
AcDbLine
 10
562.885028
 20
469.63042
 30
0.0
 11
604.008388
 21
486.07859
 31
0.0
  0
TEXT
  5
6D5
100
AcDbEntity
  8
0
 62
     0
100
AcDbText
 10
544.766344
 20
464.537508
 30
0.0
 40
6.0
  1
22
 50
21.8
100
AcDbText
  0
LINE
  5
6D6
100
AcDbEntity
  8
0
  6
BYBLOCK
 62
     0
100
AcDbLine
 10
542.45834
 20
461.460327
 30
0.0
 11
559.171085
 21
468.144948
 31
0.0
  0
LINE
  5
6D7
100
AcDbEntity
  8
AHJ
  6
BYBLOCK
 62
     0
100
AcDbLine
 10
541.529854
 20
461.088959
 30
0.0
 11
542.45834
 21
461.460327
 31
0.0
  0
ARC
  5
6D8
100
AcDbEntity
  8
AHJ
  6
BYBLOCK
 62
     0
100
AcDbCircle
 10
540.601368
 20
460.717592
 30
0.0
 40
0.5
100
AcDbArc
 50
201.8
 51
21.8
  0
ARC
  5
6D9
100
AcDbEntity
  8
AHJ
  6
BYBLOCK
 62
     0
100
AcDbCircle
 10
540.601368
 20
460.717592
 30
0.0
 40
0.5
100
AcDbArc
 50
21.8
 51
201.8
  0
ARC
  5
6DA
100
AcDbEntity
  8
AHJ
  6
BYBLOCK
 62
     0
100
AcDbCircle
 10
561.028057
 20
468.887684
 30
0.0
 40
0.5
100
AcDbArc
 50
201.8
 51
21.8
  0
ARC
  5
6DB
100
AcDbEntity
  8
AHJ
  6
BYBLOCK
 62
     0
100
AcDbCircle
 10
561.028057
 20
468.887684
 30
0.0
 40
0.5
100
AcDbArc
 50
201.8
 51
21.8
  0
LINE
  5
6DC
100
AcDbEntity
  8
AHJ
  6
BYBLOCK
 62
     0
100
AcDbLine
 10
560.099571
 20
468.516316
 30
0.0
 11
559.171085
 21
468.144948
 31
0.0
  0
ARC
  5
6DD
100
AcDbEntity
  8
AHJ
  6
BYBLOCK
 62
     0
100
AcDbCircle
 10
561.028057
 20
468.887684
 30
0.0
 40
0.5
100
AcDbArc
 50
21.8
 51
201.8
  0
ARC
  5
6DE
100
AcDbEntity
  8
AHJ
  6
BYBLOCK
 62
     0
100
AcDbCircle
 10
561.028057
 20
468.887684
 30
0.0
 40
0.5
100
AcDbArc
 50
21.8
 51
201.8
  0
LINE
  5
6DF
100
AcDbEntity
  8
AHJ
  6
BYBLOCK
 62
     0
100
AcDbLine
 10
561.956542
 20
469.259052
 30
0.0
 11
562.885028
 21
469.63042
 31
0.0
  0
POINT
  5
6E0
100
AcDbEntity
  8
DEFPOINTS
  6
BYBLOCK
 62
     0
100
AcDbPoint
 10
561.028057
 20
468.887684
 30
0.0
  0
LINE
  5
6E1
100
AcDbEntity
  8
0
  6
BYBLOCK
 62
     0
100
AcDbLine
 10
621.199517
 20
448.483197
 30
0.0
 11
604.974077
 21
489.049692
 31
0.0
  0
ARC
  5
6E2
100
AcDbEntity
  8
AHJ
  6
BYBLOCK
 62
     0
100
AcDbCircle
 10
605.86536
 20
486.821326
 30
0.0
 40
0.5
100
AcDbArc
 50
21.8
 51
201.8
  0
ARC
  5
6E3
100
AcDbEntity
  8
AHJ
  6
BYBLOCK
 62
     0
100
AcDbCircle
 10
605.86536
 20
486.821326
 30
0.0
 40
0.5
100
AcDbArc
 50
201.8
 51
21.8
  0
LINE
  5
6E4
100
AcDbEntity
  8
AHJ
  6
BYBLOCK
 62
     0
100
AcDbLine
 10
604.936874
 20
486.449958
 30
0.0
 11
604.008388
 21
486.07859
 31
0.0
  0
POINT
  5
6E5
100
AcDbEntity
  8
DEFPOINTS
  6
BYBLOCK
 62
     0
100
AcDbPoint
 10
605.86536
 20
486.821326
 30
0.0
  0
LINE
  5
6E6
100
AcDbEntity
  8
1AL
100
AcDbLine
 10
625.192019
 20
450.618595
 30
0.0
 11
634.012635
 21
454.14659
 31
0.0
  0
LINE
  5
6E7
100
AcDbEntity
  8
1AL
100
AcDbLine
 10
620.642465
 20
449.875926
 30
0.0
 11
634.569753
 21
455.446443
 31
0.0
  0
ARC
  5
6E8
100
AcDbEntity
  8
1AL
100
AcDbCircle
 10
624.91346
 20
449.968668
 30
0.0
 40
0.5
100
AcDbArc
 50
201.8
 51
21.8
  0
LINE
  5
6E9
100
AcDbEntity
  8
1AL
100
AcDbLine
 10
624.449217
 20
449.782984
 30
0.0
 11
624.263534
 21
450.247227
 31
0.0
  0
LINE
  5
6EA
100
AcDbEntity
  8
1AL
100
AcDbLine
 10
625.377703
 20
450.154352
 30
0.0
 11
625.192019
 21
450.618595
 31
0.0
  0
ARC
  5
6EB
100
AcDbEntity
  8
1AL
100
AcDbCircle
 10
621.66376
 20
448.668881
 30
0.0
 40
0.5
100
AcDbArc
 50
201.8
 51
21.8
  0
LINE
  5
6EC
100
AcDbEntity
  8
1AL
100
AcDbLine
 10
621.199517
 20
448.483197
 30
0.0
 11
620.642465
 21
449.875926
 31
0.0
  0
LINE
  5
6ED
100
AcDbEntity
  8
1AL
100
AcDbLine
 10
622.128003
 20
448.854565
 30
0.0
 11
621.942319
 21
449.318808
 31
0.0
  0
LINE
  5
6EE
100
AcDbEntity
  8
1AL
100
AcDbLine
 10
621.942319
 20
449.318808
 30
0.0
 11
624.263534
 21
450.247227
 31
0.0
  0
LINE
  5
6EF
100
AcDbEntity
  8
1AL
100
AcDbLine
 10
634.012635
 20
454.14659
 30
0.0
 11
636.61221
 21
447.647189
 31
0.0
  0
LINE
  5
6F0
100
AcDbEntity
  8
1AL
100
AcDbLine
 10
631.227045
 20
447.647321
 30
0.0
 11
630.709508
 21
448.941256
 31
0.0
  0
LINE
  5
6F1
100
AcDbEntity
  8
1BUHIN
100
AcDbLine
 10
629.741573
 20
451.361265
 30
0.0
 11
630.484309
 21
449.504293
 31
0.0
  0
LINE
  5
6F2
100
AcDbEntity
  8
1AL
100
AcDbLine
 10
634.569753
 20
455.446443
 30
0.0
 11
636.055224
 21
451.7325
 31
0.0
  0
LINE
  5
6F3
100
AcDbEntity
  8
1AL
100
AcDbLine
 10
636.983644
 20
449.411285
 30
0.0
 11
638.376372
 21
449.968337
 31
0.0
  0
LINE
  5
6F4
100
AcDbEntity
  8
1AL
100
AcDbLine
 10
636.61221
 20
447.647189
 30
0.0
 11
636.890755
 21
447.758599
 31
0.0
  0
ARC
  5
6F5
100
AcDbEntity
  8
1AL
100
AcDbCircle
 10
636.630798
 20
448.408539
 30
0.0
 40
0.7
100
AcDbArc
 50
291.8
 51
21.8
  0
LINE
  5
6F6
100
AcDbEntity
  8
1AL
100
AcDbLine
 10
636.983644
 20
449.411285
 30
0.0
 11
637.280738
 21
448.668497
 31
0.0
  0
LINE
  5
6F7
100
AcDbEntity
  8
1AL
100
AcDbLine
 10
638.376372
 20
449.968337
 30
0.0
 11
639.490476
 21
447.18288
 31
0.0
  0
LINE
  5
6F8
100
AcDbEntity
  8
1AL
100
AcDbLine
 10
638.747806
 20
451.732434
 30
0.0
 11
640.418962
 21
447.554248
 31
0.0
  0
LINE
  5
6F9
100
AcDbEntity
  8
1AL
100
AcDbLine
 10
638.376372
 20
449.968337
 30
0.0
 11
637.447887
 21
449.596969
 31
0.0
  0
LINE
  5
6FA
100
AcDbEntity
  8
1AL
100
AcDbLine
 10
638.376372
 20
449.968337
 30
0.0
 11
639.304792
 21
447.647123
 31
0.0
  0
LINE
  5
6FB
100
AcDbEntity
  8
1AL
100
AcDbLine
 10
637.540695
 20
448.018557
 30
0.0
 11
636.61221
 21
447.647189
 31
0.0
  0
LINE
  5
6FC
100
AcDbEntity
  8
1AL
100
AcDbLine
 10
637.169328
 20
448.947043
 30
0.0
 11
637.540695
 21
448.018557
 31
0.0
  0
ARC
  5
6FD
100
AcDbEntity
  8
1AL
100
AcDbCircle
 10
637.63357
 20
449.132726
 30
0.0
 40
0.5
100
AcDbArc
 50
111.8
 51
201.8
  0
LINE
  5
6FE
100
AcDbEntity
  8
ADM
 62
     0
100
AcDbLine
 10
703.090894
 20
437.618005
 30
0.0
 11
735.819622
 21
450.708563
 31
0.0
1001
ACAD
1000
RTLwPs
1070
   158
  0
LINE
  5
6FF
100
AcDbEntity
  8
ACL
  6
CENTER2
100
AcDbLine
 10
698.291623
 20
490.889618
 30
0.0
 11
747.704164
 21
367.349453
 31
0.0
  0
CIRCLE
  5
700
100
AcDbEntity
  8
WAKU
100
AcDbCircle
 10
780.0
 20
440.158249
 30
0.0
 40
7.5
  0
LINE
  5
701
100
AcDbEntity
  8
ALS
100
AcDbLine
 10
649.239643
 20
453.774824
 30
0.0
 11
719.802182
 21
385.065813
 31
0.0
  0
LINE
  5
702
100
AcDbEntity
  8
ALS
100
AcDbLine
 10
686.379076
 20
468.629538
 30
0.0
 11
682.662749
 21
370.2111
 31
0.0
  0
LINE
  5
703
100
AcDbEntity
  8
1MOKU
100
AcDbLine
 10
686.379076
 20
468.629538
 30
0.0
 11
719.802182
 21
385.065813
 31
0.0
  0
LINE
  5
704
100
AcDbEntity
  8
ACL
  6
CENTER2
100
AcDbLine
 10
661.776774
 20
476.284721
 30
0.0
 11
711.189315
 21
352.744556
 31
0.0
  0
LINE
  5
705
100
AcDbEntity
  8
ACL
  6
CENTER2
100
AcDbLine
 10
652.115029
 20
468.127831
 30
0.0
 11
665.509706
 21
434.638751
 31
0.0
  0
LINE
  5
706
100
AcDbEntity
  8
1MOKU
100
AcDbLine
 10
649.239643
 20
453.774824
 30
0.0
 11
682.662749
 21
370.2111
 31
0.0
  0
LINE
  5
707
100
AcDbEntity
  8
ADM
 62
     0
100
AcDbLine
 10
664.651077
 20
401.779751
 30
0.0
 11
686.036095
 21
348.313391
 31
0.0
1001
ACAD
1000
RTLwPs
1070
   158
  0
LINE
  5
708
100
AcDbEntity
  8
ADM
 62
     0
100
AcDbLine
 10
684.14822
 20
366.497157
 30
0.0
 11
696.62041
 21
335.314457
 31
0.0
1001
ACAD
1000
RTLwPs
1070
   158
  0
TEXT
  5
709
100
AcDbEntity
  8
ADM
100
AcDbText
 10
664.29862
 20
277.252946
 30
0.0
 40
6.0
  1
屋根勾配4寸
 50
21.8
100
AcDbText
  0
TEXT
  5
70A
100
AcDbEntity
  8
0
 62
     0
100
AcDbText
 10
646.437496
 20
319.981622
 30
0.0
 40
6.0
  1
H
 50
21.8
100
AcDbText
1001
ACAD
1000
MTEXTBEGIN
1070
    73
1070
     1
1070
    44
1040
1.0
1070
    74
1070
     0
1000
MTEXTEND
  0
ARC
  5
70B
100
AcDbEntity
  8
AHJ
  6
BYBLOCK
 62
     0
100
AcDbCircle
 10
695.729127
 20
337.542823
 30
0.0
 40
0.5
100
AcDbArc
 50
21.8
 51
201.8
  0
ARC
  5
70C
100
AcDbEntity
  8
AHJ
  6
BYBLOCK
 62
     0
100
AcDbCircle
 10
695.729127
 20
337.542823
 30
0.0
 40
0.5
100
AcDbArc
 50
201.8
 51
21.8
  0
LINE
  5
70D
100
AcDbEntity
  8
AHJ
  6
BYBLOCK
 62
     0
100
AcDbLine
 10
694.800641
 20
337.171455
 30
0.0
 11
693.872155
 21
336.800087
 31
0.0
  0
POINT
  5
70E
100
AcDbEntity
  8
DEFPOINTS
 62
     0
100
AcDbPoint
 10
695.729127
 20
337.542823
 30
0.0
  0
ARC
  5
70F
100
AcDbEntity
  8
AHJ
  6
BYBLOCK
 62
     0
100
AcDbCircle
 10
685.144813
 20
350.541757
 30
0.0
 40
0.5
100
AcDbArc
 50
21.8
 51
201.8
  0
ARC
  5
710
100
AcDbEntity
  8
AHJ
  6
BYBLOCK
 62
     0
100
AcDbCircle
 10
685.144813
 20
350.541757
 30
0.0
 40
0.5
100
AcDbArc
 50
201.8
 51
21.8
  0
LINE
  5
711
100
AcDbEntity
  8
AHJ
  6
BYBLOCK
 62
     0
100
AcDbLine
 10
684.216327
 20
350.170389
 30
0.0
 11
683.287841
 21
349.799021
 31
0.0
  0
TEXT
  5
712
100
AcDbEntity
  8
ADM
100
AcDbText
 10
713.713715
 20
275.934819
 30
0.0
 40
6.0
  1
4
100
AcDbText
  0
LINE
  5
713
100
AcDbEntity
  8
1MOKU
100
AcDbLine
 10
682.662749
 20
370.2111
 30
0.0
 11
719.802182
 21
385.065813
 31
0.0
  0
POINT
  5
714
100
AcDbEntity
  8
DEFPOINTS
 62
     0
100
AcDbPoint
 10
682.662749
 20
370.2111
 30
0.0
  0
LINE
  5
715
100
AcDbEntity
  8
ADM
100
AcDbLine
 10
654.702577
 20
418.264059
 30
0.0
 11
701.233922
 21
436.87527
 31
0.0
  0
ARC
  5
716
100
AcDbEntity
  8
1AL
100
AcDbCircle
 10
648.774705
 20
425.317025
 30
0.0
 40
0.5
100
AcDbArc
 50
111.8
 51
201.8
  0
LINE
  5
717
100
AcDbEntity
  8
1AL
100
AcDbLine
 10
644.225316
 20
431.305812
 30
0.0
 11
648.124679
 21
421.556711
 31
0.0
  0
LINE
  5
718
100
AcDbEntity
  8
1AL
100
AcDbLine
 10
644.132474
 20
431.537933
 30
0.0
 11
648.310363
 21
421.092468
 31
0.0
  0
LINE
  5
719
100
AcDbEntity
  8
1AL
100
AcDbLine
 10
642.554095
 20
432.791416
 30
0.0
 11
647.938929
 21
419.328371
 31
0.0
  0
LINE
  5
71A
100
AcDbEntity
  8
1AL
  6
HIDDEN
100
AcDbLine
 10
641.996911
 20
428.79898
 30
0.0
 11
646.267641
 21
418.121393
 31
0.0
  0
LINE
  5
71B
100
AcDbEntity
  8
1AL
  6
HIDDEN
100
AcDbLine
 10
646.973306
 20
419.049852
 30
0.0
 11
642.88826
 21
429.263196
 31
0.0
  0
LINE
  5
71C
100
AcDbEntity
  8
1AL
100
AcDbLine
 10
649.053165
 20
421.928078
 30
0.0
 11
650.464362
 21
418.399832
 31
0.0
  0
LINE
  5
71D
100
AcDbEntity
  8
1AL
100
AcDbLine
 10
649.517441
 20
423.460054
 30
0.0
 11
652.65108
 21
424.71342
 31
0.0
  0
LINE
  5
71E
100
AcDbEntity
  8
1AL
100
AcDbLine
 10
649.238716
 20
416.078671
 30
0.0
 11
652.952659
 21
417.564142
 31
0.0
  0
LINE
  5
71F
100
AcDbEntity
  8
1AL
100
AcDbLine
 10
649.238848
 20
421.463836
 30
0.0
 11
650.72432
 21
417.749892
 31
0.0
  0
LINE
  5
720
100
AcDbEntity
  8
1AL
100
AcDbLine
 10
648.310462
 20
425.131341
 30
0.0
 11
648.867514
 21
423.738613
 31
0.0
  0
ARC
  5
721
100
AcDbEntity
  8
1AL
100
AcDbCircle
 10
649.331757
 20
423.924297
 30
0.0
 40
0.5
100
AcDbArc
 50
201.8
 51
291.8
  0
LINE
  5
722
100
AcDbEntity
  8
1AL
100
AcDbLine
 10
649.053165
 20
421.928078
 30
0.0
 11
648.124679
 21
421.556711
 31
0.0
  0
LINE
  5
723
100
AcDbEntity
  8
1AL
100
AcDbLine
 10
648.310363
 20
421.092468
 30
0.0
 11
649.238848
 21
421.463836
 31
0.0
  0
LINE
  5
724
100
AcDbEntity
  8
1AL
100
AcDbLine
 10
648.867414
 20
419.699739
 30
0.0
 11
649.424466
 21
418.30701
 31
0.0
  0
LINE
  5
725
100
AcDbEntity
  8
1AL
100
AcDbLine
 10
648.49598
 20
417.935642
 30
0.0
 11
649.424466
 21
418.30701
 31
0.0
  0
LINE
  5
726
100
AcDbEntity
  8
1AL
100
AcDbLine
 10
647.938929
 20
419.328371
 30
0.0
 11
648.867414
 21
419.699739
 31
0.0
  0
LINE
  5
727
100
AcDbEntity
  8
1AL
100
AcDbLine
 10
648.49598
 20
417.935642
 30
0.0
 11
649.238716
 21
416.078671
 31
0.0
  0
ARC
  5
728
100
AcDbEntity
  8
1AL
  6
HIDDEN
100
AcDbCircle
 10
647.196127
 20
418.49276
 30
0.0
 40
1.0
100
AcDbArc
 50
201.8
 51
291.8
  0
ARC
  5
729
100
AcDbEntity
  8
1AL
  6
HIDDEN
100
AcDbCircle
 10
647.437549
 20
419.235536
 30
0.0
 40
0.5
100
AcDbArc
 50
201.8
 51
291.8
  0
LINE
  5
72A
100
AcDbEntity
  8
1AL
  6
HIDDEN
100
AcDbLine
 10
649.015962
 20
419.328345
 30
0.0
 11
647.623233
 21
418.771293
 31
0.0
  0
LINE
  5
72B
100
AcDbEntity
  8
1AL
  6
HIDDEN
100
AcDbLine
 10
649.424466
 20
418.30701
 30
0.0
 11
649.015962
 21
419.328345
 31
0.0
  0
LINE
  5
72C
100
AcDbEntity
  8
1AL
  6
HIDDEN
100
AcDbLine
 10
647.567494
 20
417.564275
 30
0.0
 11
649.424466
 21
418.30701
 31
0.0
  0
ARC
  5
72D
100
AcDbEntity
  8
1AL
100
AcDbCircle
 10
651.114302
 20
418.65979
 30
0.0
 40
0.7
100
AcDbArc
 50
201.8
 51
291.8
  0
LINE
  5
72E
100
AcDbEntity
  8
1AL
100
AcDbLine
 10
649.98165
 20
422.299446
 30
0.0
 11
651.652806
 21
418.12126
 31
0.0
  0
LINE
  5
72F
100
AcDbEntity
  8
1AL
100
AcDbLine
 10
651.652806
 20
418.12126
 30
0.0
 11
651.37426
 21
418.00985
 31
0.0
  0
ARC
  5
730
100
AcDbEntity
  8
1AL
100
AcDbCircle
 10
652.883185
 20
424.133116
 30
0.0
 40
0.625
100
AcDbArc
 50
291.8
 51
111.8
  0
LINE
  5
731
100
AcDbEntity
  8
1AL
100
AcDbLine
 10
653.11529
 20
423.552813
 30
0.0
 11
649.98165
 21
422.299446
 31
0.0
  0
LINE
  5
732
100
AcDbEntity
  8
1AL
100
AcDbLine
 10
652.952659
 20
417.564142
 30
0.0
 11
652.395608
 21
418.956871
 31
0.0
  0
LINE
  5
733
100
AcDbEntity
  8
1AL
100
AcDbLine
 10
651.281438
 20
419.049746
 30
0.0
 11
651.652806
 21
418.12126
 31
0.0
  0
LINE
  5
734
100
AcDbEntity
  8
1AL
100
AcDbLine
 10
650.72432
 20
417.749892
 30
0.0
 11
651.652806
 21
418.12126
 31
0.0
  0
LINE
  5
735
100
AcDbEntity
  8
1AL
100
AcDbLine
 10
651.281438
 20
419.049746
 30
0.0
 11
651.745681
 21
419.23543
 31
0.0
  0
ARC
  5
736
100
AcDbEntity
  8
1AL
100
AcDbCircle
 10
651.931365
 20
418.771187
 30
0.0
 40
0.5
100
AcDbArc
 50
21.8
 51
111.8
  0
POINT
  5
737
100
AcDbEntity
  8
DEFPOINTS
 62
     0
100
AcDbPoint
 10
663.165606
 20
405.493694
 30
0.0
  0
LINE
  5
738
100
AcDbEntity
  8
1AL
100
AcDbLine
 10
642.739911
 20
437.712338
 30
0.0
 11
645.153802
 21
431.67718
 31
0.0
  0
LINE
  5
739
100
AcDbEntity
  8
1AL
100
AcDbLine
 10
643.668397
 20
438.083705
 30
0.0
 11
646.082288
 21
432.048547
 31
0.0
  0
LINE
  5
73A
100
AcDbEntity
  8
1AL
100
AcDbLine
 10
642.832753
 20
437.480216
 30
0.0
 11
645.06096
 21
431.909301
 31
0.0
  0
LINE
  5
73B
100
AcDbEntity
  8
1AL
100
AcDbLine
 10
645.52517
 20
430.748694
 30
0.0
 11
649.703356
 21
432.419849
 31
0.0
  0
LINE
  5
73C
100
AcDbEntity
  8
1AL
100
AcDbLine
 10
647.103483
 20
426.802629
 30
0.0
 11
651.049548
 21
428.380942
 31
0.0
  0
LINE
  5
73D
100
AcDbEntity
  8
1AL
100
AcDbLine
 10
648.589021
 20
425.781268
 30
0.0
 11
651.6066
 21
426.988214
 31
0.0
  0
ARC
  5
73E
100
AcDbEntity
  8
1AL
100
AcDbCircle
 10
649.517672
 20
432.884092
 30
0.0
 40
0.5
100
AcDbArc
 50
291.8
 51
111.8
  0
LINE
  5
73F
100
AcDbEntity
  8
1AL
100
AcDbLine
 10
645.52517
 20
430.748694
 30
0.0
 11
647.103483
 21
426.802629
 31
0.0
  0
LINE
  5
740
100
AcDbEntity
  8
1AL
100
AcDbLine
 10
646.082288
 20
432.048547
 30
0.0
 11
649.331988
 21
433.348335
 31
0.0
  0
LINE
  5
741
100
AcDbEntity
  8
1AL
100
AcDbLine
 10
644.225316
 20
431.305812
 30
0.0
 11
645.153802
 21
431.67718
 31
0.0
  0
LINE
  5
742
100
AcDbEntity
  8
1AL
100
AcDbLine
 10
643.074076
 20
434.184118
 30
0.0
 11
643.482581
 21
433.162783
 31
0.0
  0
LINE
  5
743
100
AcDbEntity
  8
1AL
100
AcDbLine
 10
643.482581
 20
433.162783
 30
0.0
 11
642.554095
 21
432.791416
 31
0.0
  0
LINE
  5
744
100
AcDbEntity
  8
1AL
100
AcDbLine
 10
642.925529
 20
434.555512
 30
0.0
 11
641.997043
 21
434.184144
 31
0.0
  0
LINE
  5
745
100
AcDbEntity
  8
1AL
100
AcDbLine
 10
642.925529
 20
434.555512
 30
0.0
 11
643.482581
 21
433.162783
 31
0.0
  0
LINE
  5
746
100
AcDbEntity
  8
1AL
100
AcDbLine
 10
644.132474
 20
431.537933
 30
0.0
 11
645.06096
 21
431.909301
 31
0.0
  0
ARC
  5
747
100
AcDbEntity
  8
1AL
  6
HIDDEN
100
AcDbCircle
 10
642.628302
 20
429.913136
 30
0.0
 40
0.7
100
AcDbArc
 50
291.8
 51
111.8
  0
ARC
  5
748
100
AcDbEntity
  8
1AL
100
AcDbCircle
 10
651.328074
 20
427.684578
 30
0.0
 40
0.75
100
AcDbArc
 50
291.8
 51
111.8
  0
ARC
  5
749
100
AcDbEntity
  8
1AL
100
AcDbCircle
 10
643.018503
 20
439.708556
 30
0.0
 40
0.5
100
AcDbArc
 50
201.8
 51
291.8
  0
ARC
  5
74A
100
AcDbEntity
  8
1AL
100
AcDbCircle
 10
645.177303
 20
443.399197
 30
0.0
 40
0.625
100
AcDbArc
 50
291.8
 51
111.8
  0
ARC
  5
74B
100
AcDbEntity
  8
1AL
100
AcDbCircle
 10
646.569932
 20
439.917375
 30
0.0
 40
0.625
100
AcDbArc
 50
291.8
 51
111.8
  0
LINE
  5
74C
100
AcDbEntity
  8
1AL
100
AcDbLine
 10
643.668397
 20
438.083705
 30
0.0
 11
646.802037
 21
439.337072
 31
0.0
  0
LINE
  5
74D
100
AcDbEntity
  8
1AL
100
AcDbLine
 10
641.997209
 20
440.9156
 30
0.0
 11
642.554261
 21
439.522872
 31
0.0
  0
LINE
  5
74E
100
AcDbEntity
  8
1AL
100
AcDbLine
 10
643.204187
 20
439.244313
 30
0.0
 11
646.337827
 21
440.497679
 31
0.0
  0
LINE
  5
74F
100
AcDbEntity
  8
1AL
100
AcDbLine
 10
642.275768
 20
441.565527
 30
0.0
 11
645.409407
 21
442.818894
 31
0.0
  0
LINE
  5
750
100
AcDbEntity
  8
1AL
100
AcDbLine
 10
641.904267
 20
437.108848
 30
0.0
 11
642.832753
 21
437.480216
 31
0.0
  0
POINT
  5
751
100
AcDbEntity
  8
DEFPOINTS
 62
     0
100
AcDbPoint
 10
699.376951
 20
436.132534
 30
0.0
  0
LINE
  5
752
100
AcDbEntity
  8
ALS
100
AcDbLine
 10
719.802182
 20
385.065813
 30
0.0
 11
737.747314
 21
392.243354
 31
0.0
  0
LINE
  5
753
100
AcDbEntity
  8
WAKU
100
AcDbLine
 10
772.5
 20
440.158249
 30
0.0
 11
787.5
 21
440.158249
 31
0.0
  0
LINE
  5
754
100
AcDbEntity
  8
ADM
 62
     0
100
AcDbLine
 10
690.09302
 20
470.115009
 30
0.0
 11
722.821748
 21
483.205567
 31
0.0
1001
ACAD
1000
RTLwPs
1070
   158
  0
LINE
  5
755
100
AcDbEntity
  8
1MOKU
100
AcDbLine
 10
667.80936
 20
461.202181
 30
0.0
 11
704.324209
 21
475.807079
 31
0.0
  0
LINE
  5
756
100
AcDbEntity
  8
1BUHIN
  6
HIDDEN
 48
0.5
100
AcDbLine
 10
645.43688
 20
463.071067
 30
0.0
 11
700.594319
 21
485.132469
 31
0.0
  0
LINE
  5
757
100
AcDbEntity
  8
1BUHIN
  6
HIDDEN
 48
0.5
100
AcDbLine
 10
645.659549
 20
462.525763
 30
0.0
 11
679.135529
 21
475.9152
 31
0.0
  0
LINE
  5
758
100
AcDbEntity
  8
1MOKU
100
AcDbLine
 10
664.467049
 20
469.558554
 30
0.0
 11
700.981898
 21
484.163451
 31
0.0
  0
LINE
  5
759
100
AcDbEntity
  8
1MOKU
100
AcDbLine
 10
649.239643
 20
453.774824
 30
0.0
 11
688.236048
 21
469.372273
 31
0.0
  0
ARC
  5
75A
100
AcDbEntity
  8
1GASKET
100
AcDbCircle
 10
660.193242
 20
470.819216
 30
0.0
 40
4.455861
100
AcDbArc
 50
240.034696
 51
343.565304
  0
LINE
  5
75B
100
AcDbEntity
  8
1GASKET
100
AcDbLine
 10
664.467049
 20
469.558554
 30
0.0
 11
667.80936
 21
461.202181
 31
0.0
  0
LINE
  5
75C
100
AcDbEntity
  8
1AL
100
AcDbLine
 10
649.982644
 20
462.688182
 30
0.0
 11
657.410531
 21
465.659125
 31
0.0
  0
LINE
  5
75D
100
AcDbEntity
  8
1AL
100
AcDbLine
 10
645.897333
 20
462.131197
 30
0.0
 11
657.967649
 21
466.958979
 31
0.0
  0
LINE
  5
75E
100
AcDbEntity
  8
1AL
100
AcDbLine
 10
649.982644
 20
462.688182
 30
0.0
 11
652.767903
 21
455.724539
 31
0.0
  0
ARC
  5
75F
100
AcDbEntity
  8
1AL
100
AcDbCircle
 10
643.390103
 20
448.204108
 30
0.0
 40
0.5
100
AcDbArc
 50
291.8
 51
111.8
  0
LINE
  5
760
100
AcDbEntity
  8
1AL
100
AcDbLine
 10
651.282365
 20
456.7459
 30
0.0
 11
651.839417
 21
455.353171
 31
0.0
  0
ARC
  5
761
100
AcDbEntity
  8
1AL
100
AcDbCircle
 10
652.30366
 20
455.538855
 30
0.0
 40
0.5
100
AcDbArc
 50
201.8
 51
21.8
  0
LINE
  5
762
100
AcDbEntity
  8
1AL
100
AcDbLine
 10
649.054158
 20
462.316815
 30
0.0
 11
650.910997
 21
457.674385
 31
0.0
  0
LINE
  5
763
100
AcDbEntity
  8
1AL
100
AcDbLine
 10
645.897333
 20
462.131197
 30
0.0
 11
646.454385
 21
460.738468
 31
0.0
  0
ARC
  5
764
100
AcDbEntity
  8
1AL
100
AcDbCircle
 10
646.918627
 20
460.924152
 30
0.0
 40
0.5
100
AcDbArc
 50
201.8
 51
21.8
  0
LINE
  5
765
100
AcDbEntity
  8
1AL
100
AcDbLine
 10
647.197186
 20
461.574079
 30
0.0
 11
647.38287
 21
461.109836
 31
0.0
  0
LINE
  5
766
100
AcDbEntity
  8
1AL
100
AcDbLine
 10
647.197186
 20
461.574079
 30
0.0
 11
649.054158
 21
462.316815
 31
0.0
  0
LINE
  5
767
100
AcDbEntity
  8
1GASKET
100
AcDbLine
 10
667.80936
 20
461.202181
 30
0.0
 11
661.309959
 21
458.602606
 31
0.0
  0
LINE
  5
768
100
AcDbEntity
  8
1AL
100
AcDbLine
 10
657.967649
 20
466.958979
 30
0.0
 11
661.124275
 21
459.066849
 31
0.0
  0
LINE
  5
769
100
AcDbEntity
  8
1AL
100
AcDbLine
 10
657.410531
 20
465.659125
 30
0.0
 11
660.195789
 21
458.695481
 31
0.0
  0
ARC
  5
76A
100
AcDbEntity
  8
1AL
100
AcDbCircle
 10
660.660032
 20
458.881165
 30
0.0
 40
0.5
100
AcDbArc
 50
201.8
 51
21.8
  0
LINE
  5
76B
100
AcDbEntity
  8
1GASKET
100
AcDbLine
 10
661.309959
 20
458.602606
 30
0.0
 11
657.967649
 21
466.958979
 31
0.0
  0
POINT
  5
76C
100
AcDbEntity
  8
DEFPOINTS
 62
     0
100
AcDbPoint
 10
686.379076
 20
468.629538
 30
0.0
  0
TEXT
  5
76D
100
AcDbEntity
  8
0
 62
     0
100
AcDbText
 10
726.827189
 20
472.114151
 30
0.0
 40
6.0
  1
35
 50
291.8
100
AcDbText
1001
ACAD
1000
MTEXTBEGIN
1070
    73
1070
     1
1070
    44
1040
1.0
1070
    74
1070
     0
1000
MTEXTEND
  0
LINE
  5
76E
100
AcDbEntity
  8
ADM
 62
     0
100
AcDbLine
 10
721.336118
 20
480.457312
 30
0.0
 11
732.848521
 21
451.674251
 31
0.0
1001
ACAD
1000
RTLwPs
1070
   158
  0
ARC
  5
76F
100
AcDbEntity
  8
AHJ
  6
BYBLOCK
 62
     0
100
AcDbCircle
 10
733.591256
 20
449.81728
 30
0.0
 40
0.5
100
AcDbArc
 50
291.8
 51
111.8
  0
ARC
  5
770
100
AcDbEntity
  8
AHJ
  6
BYBLOCK
 62
     0
100
AcDbCircle
 10
733.591256
 20
449.81728
 30
0.0
 40
0.5
100
AcDbArc
 50
111.8
 51
291.8
  0
LINE
  5
771
100
AcDbEntity
  8
AHJ
  6
BYBLOCK
 62
     0
100
AcDbLine
 10
733.219888
 20
450.745766
 30
0.0
 11
732.848521
 21
451.674251
 31
0.0
  0
POINT
  5
772
100
AcDbEntity
  8
DEFPOINTS
 62
     0
100
AcDbPoint
 10
733.591256
 20
449.81728
 30
0.0
  0
ARC
  5
773
100
AcDbEntity
  8
AHJ
  6
BYBLOCK
 62
     0
100
AcDbCircle
 10
720.593382
 20
482.314284
 30
0.0
 40
0.5
100
AcDbArc
 50
111.8
 51
291.8
  0
ARC
  5
774
100
AcDbEntity
  8
AHJ
  6
BYBLOCK
 62
     0
100
AcDbCircle
 10
720.593382
 20
482.314284
 30
0.0
 40
0.5
100
AcDbArc
 50
291.8
 51
111.8
  0
LINE
  5
775
100
AcDbEntity
  8
AHJ
  6
BYBLOCK
 62
     0
100
AcDbLine
 10
720.96475
 20
481.385798
 30
0.0
 11
721.336118
 21
480.457312
 31
0.0
  0
CIRCLE
  5
776
100
AcDbEntity
  8
WAKU
100
AcDbCircle
 10
780.0
 20
460.158249
 30
0.0
 40
7.5
  0
LINE
  5
777
100
AcDbEntity
  8
WAKU
100
AcDbLine
 10
772.5
 20
460.158249
 30
0.0
 11
787.5
 21
460.158249
 31
0.0
  0
CIRCLE
  5
778
100
AcDbEntity
  8
WAKU
100
AcDbCircle
 10
780.0
 20
480.158249
 30
0.0
 40
7.5
  0
LINE
  5
779
100
AcDbEntity
  8
WAKU
100
AcDbLine
 10
772.5
 20
480.158249
 30
0.0
 11
787.5
 21
480.158249
 31
0.0
  0
CIRCLE
  5
77A
100
AcDbEntity
  8
WAKU
100
AcDbCircle
 10
780.0
 20
500.158249
 30
0.0
 40
7.5
  0
LINE
  5
77B
100
AcDbEntity
  8
WAKU
100
AcDbLine
 10
772.5
 20
500.158249
 30
0.0
 11
787.5
 21
500.158249
 31
0.0
  0
LINE
  5
77C
100
AcDbEntity
  8
WAKU
100
AcDbLine
 10
772.5
 20
520.158249
 30
0.0
 11
787.5
 21
520.158249
 31
0.0
  0
CIRCLE
  5
77D
100
AcDbEntity
  8
WAKU
100
AcDbCircle
 10
780.0
 20
520.158249
 30
0.0
 40
7.5
  0
ENDSEC
  0
SECTION
  2
OBJECTS
  0
DICTIONARY
  5
1E
102
{ACAD_XDICTIONARY
360
1F
102
}
100
AcDbDictionary
  3
ACAD_GROUP
350
1C
  3
ACAD_MLINESTYLE
350
1D
  0
DICTIONARY
  5
5B
100
AcDbDictionary
280
     1
  3
ACAD_XREC_ROUNDTRIP
360
5C
  0
DICTIONARY
  5
23
100
AcDbDictionary
280
     1
  3
ACAD_XREC_ROUNDTRIP
360
24
  0
DICTIONARY
  5
3
100
AcDbDictionary
280
     1
  3
ACAD_LAYOUTSELFREF
360
4
  0
DICTIONARY
  5
A
100
AcDbDictionary
280
     1
  3
ACAD_LAYOUTSELFREF
360
B
  0
DICTIONARY
  5
1F
100
AcDbDictionary
280
     1
  3
ACAD_XREC_ROUNDTRIP
360
20
  0
DICTIONARY
  5
1C
102
{ACAD_REACTORS
330
1E
102
}
100
AcDbDictionary
  0
DICTIONARY
  5
1D
102
{ACAD_REACTORS
330
1E
102
}
100
AcDbDictionary
  3
STANDARD
350
21
  0
XRECORD
  5
5C
102
{ACAD_REACTORS
330
5B
102
}
100
AcDbXrecord
102
PLOTBIT
280
     0
  0
XRECORD
  5
24
102
{ACAD_REACTORS
330
23
102
}
100
AcDbXrecord
102
ACADR14ROUNDTRIP
1000
DSTYLE
1002
{
1070
   279
 70
     2
1002
}
  0
XRECORD
  5
4
102
{ACAD_REACTORS
330
3
102
}
100
AcDbXrecord
340
2
  0
XRECORD
  5
B
102
{ACAD_REACTORS
330
A
102
}
100
AcDbXrecord
340
9
  0
XRECORD
  5
20
102
{ACAD_REACTORS
330
1F
102
}
100
AcDbXrecord
102
EXTNAMES
  1
ACADDIM
  2
AcadDim
  1
ACDBVARIABLEDICTIONARY
  2
AcDbVariableDictionary
  0
MLINESTYLE
  5
21
102
{ACAD_REACTORS
330
1D
102
}
100
AcDbMlineStyle
  2
STANDARD
 70
     0
  3

 62
   256
 51
90.0
 52
90.0
 71
     2
 49
0.5
 62
   256
  6
BYLAYER
 49
-0.5
 62
   256
  6
BYLAYER
  0
ENDSEC
  0
EOF
