  0
SECTION
  2
HEADER
  9
$ACADVER
  1
AC1014
  9
$ACADMAINTVER
 70
     0
  9
$DWGCODEPAGE
  3
ANSI_932
  9
$INSBASE
 10
0.0
 20
0.0
 30
0.0
  9
$EXTMIN
 10
0.0
 20
0.0
 30
0.0
  9
$EXTMAX
 10
395.0
 20
275.0
 30
0.0
  9
$LIMMIN
 10
0.0
 20
0.0
  9
$LIMMAX
 10
420.0
 20
297.0
  9
$ORTHOMODE
 70
     1
  9
$REGENMODE
 70
     1
  9
$FILLMODE
 70
     1
  9
$QTEXTMODE
 70
     0
  9
$MIRRTEXT
 70
     1
  9
$DRAGMODE
 70
     2
  9
$LTSCALE
 40
7.0
  9
$OSMODE
 70
    45
  9
$ATTMODE
 70
     1
  9
$TEXTSIZE
 40
3.0
  9
$TRACEWID
 40
0.05
  9
$TEXTSTYLE
  7
STANDARD
  9
$CLAYER
  8
0
  9
$CELTYPE
  6
BYLAYER
  9
$CECOLOR
 62
   256
  9
$CELTSCALE
 40
1.0
  9
$DELOBJ
 70
     1
  9
$DISPSILH
 70
     0
  9
$DIMSCALE
 40
1.0
  9
$DIMASZ
 40
2.0
  9
$DIMEXO
 40
2.0
  9
$DIMDLI
 40
0.0
  9
$DIMRND
 40
0.0
  9
$DIMDLE
 40
0.0
  9
$DIMEXE
 40
0.0
  9
$DIMTP
 40
0.0
  9
$DIMTM
 40
0.0
  9
$DIMTXT
 40
3.0
  9
$DIMCEN
 40
0.0
  9
$DIMTSZ
 40
0.0
  9
$DIMTOL
 70
     0
  9
$DIMLIM
 70
     0
  9
$DIMTIH
 70
     0
  9
$DIMTOH
 70
     0
  9
$DIMSE1
 70
     0
  9
$DIMSE2
 70
     0
  9
$DIMTAD
 70
     1
  9
$DIMZIN
 70
     8
  9
$DIMBLK
  1

  9
$DIMASO
 70
     1
  9
$DIMSHO
 70
     0
  9
$DIMPOST
  1

  9
$DIMAPOST
  1

  9
$DIMALT
 70
     0
  9
$DIMALTD
 70
     2
  9
$DIMALTF
 40
25.4
  9
$DIMLFAC
 40
1.0
  9
$DIMTOFL
 70
     1
  9
$DIMTVP
 40
1.0
  9
$DIMTIX
 70
     1
  9
$DIMSOXD
 70
     1
  9
$DIMSAH
 70
     0
  9
$DIMBLK1
  1

  9
$DIMBLK2
  1

  9
$DIMSTYLE
  2
STANDARD
  9
$DIMCLRD
 70
     0
  9
$DIMCLRE
 70
     0
  9
$DIMCLRT
 70
   256
  9
$DIMTFAC
 40
1.0
  9
$DIMGAP
 40
0.0
  9
$DIMJUST
 70
     0
  9
$DIMSD1
 70
     0
  9
$DIMSD2
 70
     0
  9
$DIMTOLJ
 70
     1
  9
$DIMTZIN
 70
     8
  9
$DIMALTZ
 70
     8
  9
$DIMALTTZ
 70
     8
  9
$DIMFIT
 70
     5
  9
$DIMUPT
 70
     0
  9
$DIMUNIT
 70
     2
  9
$DIMDEC
 70
     8
  9
$DIMTDEC
 70
     8
  9
$DIMALTU
 70
     2
  9
$DIMALTTD
 70
     2
  9
$DIMTXSTY
  7
STANDARD
  9
$DIMAUNIT
 70
     0
  9
$LUNITS
 70
     2
  9
$LUPREC
 70
     8
  9
$SKETCHINC
 40
0.1
  9
$FILLETRAD
 40
0.8
  9
$AUNITS
 70
     0
  9
$AUPREC
 70
     8
  9
$MENU
  1
ACAD
  9
$ELEVATION
 40
0.0
  9
$PELEVATION
 40
0.0
  9
$THICKNESS
 40
0.0
  9
$LIMCHECK
 70
     0
  9
$BLIPMODE
 70
     0
  9
$CHAMFERA
 40
0.0
  9
$CHAMFERB
 40
0.0
  9
$CHAMFERC
 40
0.0
  9
$CHAMFERD
 40
0.0
  9
$SKPOLY
 70
     0
  9
$TDCREATE
 40
2450991.621319444
  9
$TDUPDATE
 40
2452779.695578877
  9
$TDINDWG
 40
0.5219957755
  9
$TDUSRTIMER
 40
0.5219957755
  9
$USRTIMER
 70
     1
  9
$ANGBASE
 50
0.0
  9
$ANGDIR
 70
     0
  9
$PDMODE
 70
     0
  9
$PDSIZE
 40
0.0
  9
$PLINEWID
 40
0.0
  9
$COORDS
 70
     2
  9
$SPLFRAME
 70
     0
  9
$SPLINETYPE
 70
     6
  9
$SPLINESEGS
 70
     8
  9
$ATTDIA
 70
     0
  9
$ATTREQ
 70
     1
  9
$HANDLING
 70
     1
  9
$HANDSEED
  5
3B4
  9
$SURFTAB1
 70
     6
  9
$SURFTAB2
 70
     6
  9
$SURFTYPE
 70
     6
  9
$SURFU
 70
     6
  9
$SURFV
 70
     6
  9
$UCSNAME
  2

  9
$UCSORG
 10
0.0
 20
0.0
 30
0.0
  9
$UCSXDIR
 10
1.0
 20
0.0
 30
0.0
  9
$UCSYDIR
 10
0.0
 20
1.0
 30
0.0
  9
$PUCSNAME
  2

  9
$PUCSORG
 10
0.0
 20
0.0
 30
0.0
  9
$PUCSXDIR
 10
1.0
 20
0.0
 30
0.0
  9
$PUCSYDIR
 10
0.0
 20
1.0
 30
0.0
  9
$USERI1
 70
     0
  9
$USERI2
 70
     0
  9
$USERI3
 70
     0
  9
$USERI4
 70
     0
  9
$USERI5
 70
     0
  9
$USERR1
 40
0.0
  9
$USERR2
 40
0.0
  9
$USERR3
 40
0.0
  9
$USERR4
 40
0.0
  9
$USERR5
 40
0.0
  9
$WORLDVIEW
 70
     1
  9
$SHADEDGE
 70
     3
  9
$SHADEDIF
 70
    70
  9
$TILEMODE
 70
     1
  9
$MAXACTVP
 70
    16
  9
$PINSBASE
 10
0.0
 20
0.0
 30
0.0
  9
$PLIMCHECK
 70
     0
  9
$PEXTMIN
 10
1.000000E+20
 20
1.000000E+20
 30
1.000000E+20
  9
$PEXTMAX
 10
-1.000000E+20
 20
-1.000000E+20
 30
-1.000000E+20
  9
$PLIMMIN
 10
0.0
 20
0.0
  9
$PLIMMAX
 10
12.0
 20
9.0
  9
$UNITMODE
 70
     0
  9
$VISRETAIN
 70
     0
  9
$PLINEGEN
 70
     0
  9
$PSLTSCALE
 70
     0
  9
$TREEDEPTH
 70
  3020
  9
$PICKSTYLE
 70
     1
  9
$CMLSTYLE
  2
STANDARD
  9
$CMLJUST
 70
     0
  9
$CMLSCALE
 40
1.0
  9
$PROXYGRAPHICS
 70
     1
  9
$MEASUREMENT
 70
     0
  0
ENDSEC
  0
SECTION
  2
CLASSES
  0
CLASS
  1
LWPOLYLINE
  2
AcDbPolyline
  3
"AutoCAD"
 90
        0
280
     0
281
     1
  0
CLASS
  1
ACDBDICTIONARYWDFLT
  2
AcDbDictionaryWithDefault
  3
AutoCAD 2000
 90
        0
280
     1
281
     0
  0
CLASS
  1
ACDBPLACEHOLDER
  2
AcDbPlaceHolder
  3
AutoCAD 2000
 90
        0
280
     1
281
     0
  0
CLASS
  1
LAYOUT
  2
AcDbLayout
  3
AutoCAD 2000
 90
        0
280
     1
281
     0
  0
CLASS
  1
DICTIONARYVAR
  2
AcDbDictionaryVar
  3
"AutoCAD"
 90
        0
280
     0
281
     0
  0
CLASS
  1
LONG_TRANSACTION
  2
AcDbLongTransaction
  3
AutoCAD 2000
 90
        0
280
     1
281
     0
  0
CLASS
  1
LWPOLYLINE
  2
AcDbPolyline
  3
"AutoCAD"
 90
        0
280
     0
281
     1
  0
CLASS
  1
HATCH
  2
AcDbHatch
  3
"ACAD_SEDONA"
 90
        0
280
     0
281
     1
  0
CLASS
  1
XRECORD
  2
AcDbXrecord
  3
"<Built In>"
 90
        0
280
     0
281
     0
  0
CLASS
  1
LONG_TRANSACTION
  2
AcDbLongTransaction
  3
AutoCAD 2000
 90
        0
280
     1
281
     0
  0
CLASS
  1
LWPOLYLINE
  2
AcDbPolyline
  3
"AutoCAD"
 90
        0
280
     0
281
     1
  0
CLASS
  1
HATCH
  2
AcDbHatch
  3
"ACAD_SEDONA"
 90
        0
280
     0
281
     1
  0
CLASS
  1
XRECORD
  2
AcDbXrecord
  3
"<Built In>"
 90
        0
280
     0
281
     0
  0
CLASS
  1
LONG_TRANSACTION
  2
AcDbLongTransaction
  3
AutoCAD 2000
 90
        0
280
     1
281
     0
  0
CLASS
  1
LWPOLYLINE
  2
AcDbPolyline
  3
"AutoCAD"
 90
        0
280
     0
281
     1
  0
CLASS
  1
HATCH
  2
AcDbHatch
  3
"ACAD_SEDONA"
 90
        0
280
     0
281
     1
  0
CLASS
  1
XRECORD
  2
AcDbXrecord
  3
"<Built In>"
 90
        0
280
     0
281
     0
  0
CLASS
  1
LONG_TRANSACTION
  2
AcDbLongTransaction
  3
AutoCAD 2000
 90
        0
280
     1
281
     0
  0
CLASS
  1
LWPOLYLINE
  2
AcDbPolyline
  3
"AutoCAD"
 90
        0
280
     0
281
     1
  0
CLASS
  1
HATCH
  2
AcDbHatch
  3
"ACAD_SEDONA"
 90
        0
280
     0
281
     1
  0
CLASS
  1
XRECORD
  2
AcDbXrecord
  3
"<Built In>"
 90
        0
280
     0
281
     0
  0
CLASS
  1
LONG_TRANSACTION
  2
AcDbLongTransaction
  3
AutoCAD 2000
 90
        0
280
     1
281
     0
  0
CLASS
  1
LWPOLYLINE
  2
AcDbPolyline
  3
"AutoCAD"
 90
        0
280
     0
281
     1
  0
CLASS
  1
HATCH
  2
AcDbHatch
  3
"ACAD_SEDONA"
 90
        0
280
     0
281
     1
  0
CLASS
  1
XRECORD
  2
AcDbXrecord
  3
"<Built In>"
 90
        0
280
     0
281
     0
  0
CLASS
  1
LONG_TRANSACTION
  2
AcDbLongTransaction
  3
AutoCAD 2000
 90
        0
280
     1
281
     0
  0
CLASS
  1
LWPOLYLINE
  2
AcDbPolyline
  3
"AutoCAD"
 90
        0
280
     0
281
     1
  0
CLASS
  1
HATCH
  2
AcDbHatch
  3
"ACAD_SEDONA"
 90
        0
280
     0
281
     1
  0
CLASS
  1
XRECORD
  2
AcDbXrecord
  3
"<Built In>"
 90
        0
280
     0
281
     0
  0
CLASS
  1
LONG_TRANSACTION
  2
AcDbLongTransaction
  3
AutoCAD 2000
 90
        0
280
     1
281
     0
  0
CLASS
  1
LWPOLYLINE
  2
AcDbPolyline
  3
"AutoCAD"
 90
        0
280
     0
281
     1
  0
CLASS
  1
HATCH
  2
AcDbHatch
  3
"ACAD_SEDONA"
 90
        0
280
     0
281
     1
  0
CLASS
  1
XRECORD
  2
AcDbXrecord
  3
"<Built In>"
 90
        0
280
     0
281
     0
  0
CLASS
  1
LONG_TRANSACTION
  2
AcDbLongTransaction
  3
AutoCAD 2000
 90
        0
280
     1
281
     0
  0
CLASS
  1
LWPOLYLINE
  2
AcDbPolyline
  3
"AutoCAD"
 90
        0
280
     0
281
     1
  0
CLASS
  1
HATCH
  2
AcDbHatch
  3
"ACAD_SEDONA"
 90
        0
280
     0
281
     1
  0
CLASS
  1
XRECORD
  2
AcDbXrecord
  3
"<Built In>"
 90
        0
280
     0
281
     0
  0
CLASS
  1
LONG_TRANSACTION
  2
AcDbLongTransaction
  3
AutoCAD 2000
 90
        0
280
     1
281
     0
  0
CLASS
  1
LWPOLYLINE
  2
AcDbPolyline
  3
"AutoCAD"
 90
        0
280
     0
281
     1
  0
CLASS
  1
HATCH
  2
AcDbHatch
  3
"ACAD_SEDONA"
 90
        0
280
     0
281
     1
  0
CLASS
  1
XRECORD
  2
AcDbXrecord
  3
"<Built In>"
 90
        0
280
     0
281
     0
  0
CLASS
  1
LONG_TRANSACTION
  2
AcDbLongTransaction
  3
AutoCAD 2000
 90
        0
280
     1
281
     0
  0
CLASS
  1
LWPOLYLINE
  2
AcDbPolyline
  3
"AutoCAD"
 90
        0
280
     0
281
     1
  0
CLASS
  1
HATCH
  2
AcDbHatch
  3
"ACAD_SEDONA"
 90
        0
280
     0
281
     1
  0
CLASS
  1
XRECORD
  2
AcDbXrecord
  3
"<Built In>"
 90
        0
280
     0
281
     0
  0
CLASS
  1
LONG_TRANSACTION
  2
AcDbLongTransaction
  3
AutoCAD 2000
 90
        0
280
     1
281
     0
  0
CLASS
  1
LWPOLYLINE
  2
AcDbPolyline
  3
"AutoCAD"
 90
        0
280
     0
281
     1
  0
CLASS
  1
HATCH
  2
AcDbHatch
  3
"ACAD_SEDONA"
 90
        0
280
     0
281
     1
  0
CLASS
  1
XRECORD
  2
AcDbXrecord
  3
"<Built In>"
 90
        0
280
     0
281
     0
  0
CLASS
  1
LONG_TRANSACTION
  2
AcDbLongTransaction
  3
AutoCAD 2000
 90
        0
280
     1
281
     0
  0
CLASS
  1
LWPOLYLINE
  2
AcDbPolyline
  3
"AutoCAD"
 90
        0
280
     0
281
     1
  0
CLASS
  1
HATCH
  2
AcDbHatch
  3
"ACAD_SEDONA"
 90
        0
280
     0
281
     1
  0
CLASS
  1
XRECORD
  2
AcDbXrecord
  3
"<Built In>"
 90
        0
280
     0
281
     0
  0
CLASS
  1
LONG_TRANSACTION
  2
AcDbLongTransaction
  3
AutoCAD 2000
 90
        0
280
     1
281
     0
  0
CLASS
  1
LWPOLYLINE
  2
AcDbPolyline
  3
"AutoCAD"
 90
        0
280
     0
281
     1
  0
CLASS
  1
HATCH
  2
AcDbHatch
  3
"ACAD_SEDONA"
 90
        0
280
     0
281
     1
  0
CLASS
  1
XRECORD
  2
AcDbXrecord
  3
"<Built In>"
 90
        0
280
     0
281
     0
  0
CLASS
  1
LONG_TRANSACTION
  2
AcDbLongTransaction
  3
AutoCAD 2000
 90
        0
280
     1
281
     0
  0
CLASS
  1
LWPOLYLINE
  2
AcDbPolyline
  3
"AutoCAD"
 90
        0
280
     0
281
     1
  0
CLASS
  1
HATCH
  2
AcDbHatch
  3
"ACAD_SEDONA"
 90
        0
280
     0
281
     1
  0
CLASS
  1
XRECORD
  2
AcDbXrecord
  3
"<Built In>"
 90
        0
280
     0
281
     0
  0
CLASS
  1
LONG_TRANSACTION
  2
AcDbLongTransaction
  3
AutoCAD 2000
 90
        0
280
     1
281
     0
  0
CLASS
  1
LWPOLYLINE
  2
AcDbPolyline
  3
"AutoCAD"
 90
        0
280
     0
281
     1
  0
CLASS
  1
HATCH
  2
AcDbHatch
  3
"ACAD_SEDONA"
 90
        0
280
     0
281
     1
  0
CLASS
  1
XRECORD
  2
AcDbXrecord
  3
"<Built In>"
 90
        0
280
     0
281
     0
  0
CLASS
  1
LONG_TRANSACTION
  2
AcDbLongTransaction
  3
AutoCAD 2000
 90
        0
280
     1
281
     0
  0
CLASS
  1
LWPOLYLINE
  2
AcDbPolyline
  3
"AutoCAD"
 90
        0
280
     0
281
     1
  0
CLASS
  1
HATCH
  2
AcDbHatch
  3
"ACAD_SEDONA"
 90
        0
280
     0
281
     1
  0
CLASS
  1
XRECORD
  2
AcDbXrecord
  3
"<Built In>"
 90
        0
280
     0
281
     0
  0
CLASS
  1
LONG_TRANSACTION
  2
AcDbLongTransaction
  3
AutoCAD 2000
 90
        0
280
     1
281
     0
  0
CLASS
  1
LWPOLYLINE
  2
AcDbPolyline
  3
"AutoCAD"
 90
        0
280
     0
281
     1
  0
CLASS
  1
HATCH
  2
AcDbHatch
  3
"ACAD_SEDONA"
 90
        0
280
     0
281
     1
  0
CLASS
  1
XRECORD
  2
AcDbXrecord
  3
"<Built In>"
 90
        0
280
     0
281
     0
  0
CLASS
  1
LONG_TRANSACTION
  2
AcDbLongTransaction
  3
AutoCAD 2000
 90
        0
280
     1
281
     0
  0
CLASS
  1
LWPOLYLINE
  2
AcDbPolyline
  3
"AutoCAD"
 90
        0
280
     0
281
     1
  0
CLASS
  1
HATCH
  2
AcDbHatch
  3
"ACAD_SEDONA"
 90
        0
280
     0
281
     1
  0
CLASS
  1
XRECORD
  2
AcDbXrecord
  3
"<Built In>"
 90
        0
280
     0
281
     0
  0
CLASS
  1
LONG_TRANSACTION
  2
AcDbLongTransaction
  3
AutoCAD 2000
 90
        0
280
     1
281
     0
  0
CLASS
  1
LWPOLYLINE
  2
AcDbPolyline
  3
"AutoCAD"
 90
        0
280
     0
281
     1
  0
CLASS
  1
HATCH
  2
AcDbHatch
  3
"ACAD_SEDONA"
 90
        0
280
     0
281
     1
  0
CLASS
  1
XRECORD
  2
AcDbXrecord
  3
"<Built In>"
 90
        0
280
     0
281
     0
  0
CLASS
  1
LONG_TRANSACTION
  2
AcDbLongTransaction
  3
AutoCAD 2000
 90
        0
280
     1
281
     0
  0
CLASS
  1
LWPOLYLINE
  2
AcDbPolyline
  3
"AutoCAD"
 90
        0
280
     0
281
     1
  0
CLASS
  1
HATCH
  2
AcDbHatch
  3
"ACAD_SEDONA"
 90
        0
280
     0
281
     1
  0
CLASS
  1
XRECORD
  2
AcDbXrecord
  3
"<Built In>"
 90
        0
280
     0
281
     0
  0
CLASS
  1
LONG_TRANSACTION
  2
AcDbLongTransaction
  3
AutoCAD 2000
 90
        0
280
     1
281
     0
  0
CLASS
  1
LWPOLYLINE
  2
AcDbPolyline
  3
"AutoCAD"
 90
        0
280
     0
281
     1
  0
CLASS
  1
HATCH
  2
AcDbHatch
  3
"ACAD_SEDONA"
 90
        0
280
     0
281
     1
  0
CLASS
  1
XRECORD
  2
AcDbXrecord
  3
"<Built In>"
 90
        0
280
     0
281
     0
  0
ENDSEC
  0
SECTION
  2
TABLES
  0
TABLE
  2
VPORT
  5
16
100
AcDbSymbolTable
 70
     2
  0
VPORT
  5
3B3
100
AcDbSymbolTableRecord
100
AcDbViewportTableRecord
  2
*ACTIVE
 70
     0
 10
0.0
 20
0.0
 11
1.0
 21
1.0
 12
209.990392
 22
159.080851
 13
0.0
 23
0.0
 14
10.0
 24
10.0
 15
10.0
 25
10.0
 16
0.0
 26
0.0
 36
1.0
 17
0.0
 27
0.0
 37
0.0
 40
643.089926
 41
1.670886
 42
50.0
 43
0.0
 44
0.0
 50
0.0
 51
0.0
 71
     0
 72
   100
 73
     1
 74
     0
 75
     0
 76
     0
 77
     0
 78
     0
  0
ENDTAB
  0
TABLE
  2
LTYPE
  5
11
100
AcDbSymbolTable
 70
     4
  0
LTYPE
  5
12
100
AcDbSymbolTableRecord
100
AcDbLinetypeTableRecord
  2
BYBLOCK
 70
     0
  3

 72
    65
 73
     0
 40
0.0
  0
LTYPE
  5
13
100
AcDbSymbolTableRecord
100
AcDbLinetypeTableRecord
  2
BYLAYER
 70
     0
  3

 72
    65
 73
     0
 40
0.0
  0
LTYPE
  5
7
100
AcDbSymbolTableRecord
100
AcDbLinetypeTableRecord
  2
CONTINUOUS
 70
     0
  3
Solid line
 72
    65
 73
     0
 40
0.0
  0
LTYPE
  5
35D
100
AcDbSymbolTableRecord
100
AcDbLinetypeTableRecord
  2
CENTER
 70
     0
  3
____ _ ____ _ ____ _ ____ _ ____ _ ____ _ ____ 
 72
    65
 73
     4
 40
2.0
 49
1.25
 74
     0
 49
-0.25
 74
     0
 49
0.25
 74
     0
 49
-0.25
 74
     0
  0
LTYPE
  5
34F
100
AcDbSymbolTableRecord
100
AcDbLinetypeTableRecord
  2
HIDDEN
 70
     0
  3
__ __ __ __ __ __ __ __ __ __ __ __ __ __ __ __
 72
    65
 73
     2
 40
0.375
 49
0.25
 74
     0
 49
-0.125
 74
     0
  0
LTYPE
  5
37B
100
AcDbSymbolTableRecord
100
AcDbLinetypeTableRecord
  2
CENTER2
 70
     0
  3
___ _ ___ _ ___ _ ___ _ ___ _ ___ _ ___ _ ___ _
 72
    65
 73
     4
 40
1.125
 49
0.75
 74
     0
 49
-0.125
 74
     0
 49
0.125
 74
     0
 49
-0.125
 74
     0
  0
ENDTAB
  0
TABLE
  2
LAYER
  5
E
100
AcDbSymbolTable
 70
    13
  0
LAYER
  5
6
100
AcDbSymbolTableRecord
100
AcDbLayerTableRecord
  2
0
 70
     0
 62
     7
  6
CONTINUOUS
  0
LAYER
  5
C1
100
AcDbSymbolTableRecord
100
AcDbLayerTableRecord
  2
WAKU
 70
     0
 62
     7
  6
CONTINUOUS
  0
LAYER
  5
368
100
AcDbSymbolTableRecord
100
AcDbLayerTableRecord
  2
ADM
 70
     0
 62
     4
  6
CONTINUOUS
  0
LAYER
  5
244
100
AcDbSymbolTableRecord
100
AcDbLayerTableRecord
  2
AHA
 70
     0
 62
     4
  6
CONTINUOUS
  0
LAYER
  5
35C
100
AcDbSymbolTableRecord
100
AcDbLayerTableRecord
  2
ACL
 70
     0
 62
     1
  6
CENTER
  0
LAYER
  5
DB
100
AcDbSymbolTableRecord
100
AcDbLayerTableRecord
  2
ALS
 70
     0
 62
     4
  6
CONTINUOUS
  0
LAYER
  5
26
100
AcDbSymbolTableRecord
100
AcDbLayerTableRecord
  2
AHJ
 70
     0
 62
     1
  6
CONTINUOUS
  0
LAYER
  5
189
102
{ACAD_XDICTIONARY
360
18A
102
}
100
AcDbSymbolTableRecord
100
AcDbLayerTableRecord
  2
DEFPOINTS
 70
     0
 62
     7
  6
CONTINUOUS
  0
LAYER
  5
36D
100
AcDbSymbolTableRecord
100
AcDbLayerTableRecord
  2
1MOKU
 70
     0
 62
     7
  6
CONTINUOUS
  0
LAYER
  5
153
100
AcDbSymbolTableRecord
100
AcDbLayerTableRecord
  2
1AL
 70
     0
 62
     3
  6
CONTINUOUS
  0
LAYER
  5
34E
100
AcDbSymbolTableRecord
100
AcDbLayerTableRecord
  2
1BUHIN
 70
     0
 62
     4
  6
CONTINUOUS
  0
LAYER
  5
150
100
AcDbSymbolTableRecord
100
AcDbLayerTableRecord
  2
1BIS
 70
     0
 62
     2
  6
CONTINUOUS
  0
LAYER
  5
184
100
AcDbSymbolTableRecord
100
AcDbLayerTableRecord
  2
1GASKET
 70
     0
 62
     2
  6
CONTINUOUS
  0
ENDTAB
  0
TABLE
  2
STYLE
  5
F
100
AcDbSymbolTable
 70
     1
  0
STYLE
  5
10
100
AcDbSymbolTableRecord
100
AcDbTextStyleTableRecord
  2
STANDARD
 70
     0
 40
0.0
 41
1.0
 50
0.0
 71
     0
 42
3.0
  3
romans
  4
bigfont
  0
ENDTAB
  0
TABLE
  2
VIEW
  5
14
100
AcDbSymbolTable
 70
     0
  0
ENDTAB
  0
TABLE
  2
UCS
  5
15
100
AcDbSymbolTable
 70
     0
  0
ENDTAB
  0
TABLE
  2
APPID
  5
18
100
AcDbSymbolTable
 70
     1
  0
APPID
  5
19
100
AcDbSymbolTableRecord
100
AcDbRegAppTableRecord
  2
ACAD
 70
     0
  0
ENDTAB
  0
TABLE
  2
DIMSTYLE
  5
1A
100
AcDbSymbolTable
 70
     1
  0
DIMSTYLE
105
22
102
{ACAD_XDICTIONARY
360
23
102
}
100
AcDbSymbolTableRecord
100
AcDbDimStyleTableRecord
  2
STANDARD
 70
     0
  3

  4

  5

  6

  7

 40
1.0
 41
2.0
 42
2.0
 43
0.0
 44
0.0
 45
0.0
 46
0.0
 47
0.0
 48
0.0
140
3.0
141
0.0
142
0.0
143
25.4
144
1.0
145
1.0
146
1.0
147
0.0
 71
     0
 72
     0
 73
     0
 74
     0
 75
     0
 76
     0
 77
     1
 78
     8
170
     0
171
     2
172
     1
173
     0
174
     1
175
     1
176
     0
177
     0
178
   256
270
     2
271
     8
272
     8
273
     2
274
     2
340
10
275
     0
280
     0
281
     0
282
     0
283
     1
284
     8
285
     8
286
     8
287
     5
288
     0
  0
ENDTAB
  0
TABLE
  2
BLOCK_RECORD
  5
1
100
AcDbSymbolTable
 70
     0
  0
BLOCK_RECORD
  5
2
102
{ACAD_XDICTIONARY
360
3
102
}
100
AcDbSymbolTableRecord
100
AcDbBlockTableRecord
  2
*MODEL_SPACE
  0
BLOCK_RECORD
  5
9
102
{ACAD_XDICTIONARY
360
A
102
}
100
AcDbSymbolTableRecord
100
AcDbBlockTableRecord
  2
*PAPER_SPACE
  0
ENDTAB
  0
ENDSEC
  0
SECTION
  2
BLOCKS
  0
BLOCK
  5
5
100
AcDbEntity
  8
0
100
AcDbBlockBegin
  2
*MODEL_SPACE
 70
     0
 10
0.0
 20
0.0
 30
0.0
  3
*MODEL_SPACE
  1

  0
ENDBLK
  5
8
100
AcDbEntity
  8
0
100
AcDbBlockEnd
  0
BLOCK
  5
C
100
AcDbEntity
 67
     1
  8
0
100
AcDbBlockBegin
  2
*PAPER_SPACE
 70
     0
 10
0.0
 20
0.0
 30
0.0
  3
*PAPER_SPACE
  1

  0
ENDBLK
  5
D
100
AcDbEntity
 67
     1
  8
0
100
AcDbBlockEnd
  0
ENDSEC
  0
SECTION
  2
ENTITIES
  0
ARC
  5
25
100
AcDbEntity
  8
AHJ
  6
BYBLOCK
 62
     0
100
AcDbCircle
 10
98.377306
 20
65.427568
 30
0.0
 40
0.25
100
AcDbArc
 50
180.0
 51
0.0
  0
ARC
  5
27
100
AcDbEntity
  8
AHJ
  6
BYBLOCK
 62
     0
100
AcDbCircle
 10
98.377306
 20
65.427568
 30
0.0
 40
0.25
100
AcDbArc
 50
0.0
 51
180.0
  0
ARC
  5
28
100
AcDbEntity
  8
AHJ
  6
BYBLOCK
 62
     0
100
AcDbCircle
 10
105.877306
 20
65.427568
 30
0.0
 40
0.25
100
AcDbArc
 50
0.0
 51
180.0
  0
ARC
  5
29
100
AcDbEntity
  8
AHJ
  6
BYBLOCK
 62
     0
100
AcDbCircle
 10
105.877306
 20
65.427568
 30
0.0
 40
0.25
100
AcDbArc
 50
180.0
 51
0.0
  0
ARC
  5
2A
100
AcDbEntity
  8
AHJ
  6
BYBLOCK
 62
     0
100
AcDbCircle
 10
95.877306
 20
57.427568
 30
0.0
 40
0.25
100
AcDbArc
 50
0.0
 51
180.0
  0
ARC
  5
2B
100
AcDbEntity
  8
AHJ
  6
BYBLOCK
 62
     0
100
AcDbCircle
 10
95.877306
 20
57.427568
 30
0.0
 40
0.25
100
AcDbArc
 50
180.0
 51
0.0
  0
ARC
  5
2C
100
AcDbEntity
  8
AHJ
  6
BYBLOCK
 62
     0
100
AcDbCircle
 10
98.377306
 20
57.427568
 30
0.0
 40
0.25
100
AcDbArc
 50
180.0
 51
0.0
  0
ARC
  5
2D
100
AcDbEntity
  8
AHJ
  6
BYBLOCK
 62
     0
100
AcDbCircle
 10
98.377306
 20
57.427568
 30
0.0
 40
0.25
100
AcDbArc
 50
0.0
 51
180.0
  0
ARC
  5
2E
100
AcDbEntity
  8
AHJ
  6
BYBLOCK
 62
     0
100
AcDbCircle
 10
321.958862
 20
65.427568
 30
0.0
 40
0.25
100
AcDbArc
 50
0.0
 51
180.0
  0
ARC
  5
2F
100
AcDbEntity
  8
AHJ
  6
BYBLOCK
 62
     0
100
AcDbCircle
 10
321.958862
 20
65.427568
 30
0.0
 40
0.25
100
AcDbArc
 50
180.0
 51
0.0
  0
ARC
  5
30
100
AcDbEntity
  8
AHJ
  6
BYBLOCK
 62
     0
100
AcDbCircle
 10
314.458862
 20
65.427568
 30
0.0
 40
0.25
100
AcDbArc
 50
180.0
 51
0.0
  0
ARC
  5
31
100
AcDbEntity
  8
AHJ
  6
BYBLOCK
 62
     0
100
AcDbCircle
 10
314.458862
 20
65.427568
 30
0.0
 40
0.25
100
AcDbArc
 50
0.0
 51
180.0
  0
ARC
  5
32
100
AcDbEntity
  8
AHJ
  6
BYBLOCK
 62
     0
100
AcDbCircle
 10
324.458862
 20
57.427568
 30
0.0
 40
0.25
100
AcDbArc
 50
180.0
 51
0.0
  0
ARC
  5
33
100
AcDbEntity
  8
AHJ
  6
BYBLOCK
 62
     0
100
AcDbCircle
 10
324.458862
 20
57.427568
 30
0.0
 40
0.25
100
AcDbArc
 50
0.0
 51
180.0
  0
ARC
  5
34
100
AcDbEntity
  8
AHJ
  6
BYBLOCK
 62
     0
100
AcDbCircle
 10
321.958862
 20
57.427568
 30
0.0
 40
0.25
100
AcDbArc
 50
0.0
 51
180.0
  0
ARC
  5
35
100
AcDbEntity
  8
AHJ
  6
BYBLOCK
 62
     0
100
AcDbCircle
 10
321.958862
 20
57.427568
 30
0.0
 40
0.25
100
AcDbArc
 50
180.0
 51
0.0
  0
ARC
  5
36
100
AcDbEntity
  8
AHJ
  6
BYBLOCK
 62
     0
100
AcDbCircle
 10
321.958862
 20
57.427568
 30
0.0
 40
0.25
100
AcDbArc
 50
0.0
 51
180.0
  0
ARC
  5
37
100
AcDbEntity
  8
AHJ
  6
BYBLOCK
 62
     0
100
AcDbCircle
 10
321.958862
 20
57.427568
 30
0.0
 40
0.25
100
AcDbArc
 50
180.0
 51
0.0
  0
ARC
  5
38
100
AcDbEntity
  8
AHJ
  6
BYBLOCK
 62
     0
100
AcDbCircle
 10
98.377306
 20
57.427568
 30
0.0
 40
0.25
100
AcDbArc
 50
180.0
 51
0.0
  0
ARC
  5
39
100
AcDbEntity
  8
AHJ
  6
BYBLOCK
 62
     0
100
AcDbCircle
 10
98.377306
 20
57.427568
 30
0.0
 40
0.25
100
AcDbArc
 50
0.0
 51
180.0
  0
ARC
  5
3A
100
AcDbEntity
  8
AHJ
  6
BYBLOCK
 62
     0
100
AcDbCircle
 10
324.458862
 20
49.427568
 30
0.0
 40
0.25
100
AcDbArc
 50
0.0
 51
180.0
  0
ARC
  5
3B
100
AcDbEntity
  8
AHJ
  6
BYBLOCK
 62
     0
100
AcDbCircle
 10
324.458862
 20
49.427568
 30
0.0
 40
0.25
100
AcDbArc
 50
180.0
 51
0.0
  0
ARC
  5
3C
100
AcDbEntity
  8
AHJ
  6
BYBLOCK
 62
     0
100
AcDbCircle
 10
95.877306
 20
49.427568
 30
0.0
 40
0.25
100
AcDbArc
 50
180.0
 51
0.0
  0
ARC
  5
3D
100
AcDbEntity
  8
AHJ
  6
BYBLOCK
 62
     0
100
AcDbCircle
 10
95.877306
 20
49.427568
 30
0.0
 40
0.25
100
AcDbArc
 50
0.0
 51
180.0
  0
ARC
  5
3E
100
AcDbEntity
  8
AHJ
  6
BYBLOCK
 62
     0
100
AcDbCircle
 10
344.458862
 20
219.458893
 30
0.0
 40
0.25
100
AcDbArc
 50
0.0
 51
180.0
  0
ARC
  5
3F
100
AcDbEntity
  8
AHJ
  6
BYBLOCK
 62
     0
100
AcDbCircle
 10
344.458862
 20
219.458893
 30
0.0
 40
0.25
100
AcDbArc
 50
180.0
 51
0.0
  0
ARC
  5
40
100
AcDbEntity
  8
AHJ
  6
BYBLOCK
 62
     0
100
AcDbCircle
 10
336.458862
 20
219.458893
 30
0.0
 40
0.25
100
AcDbArc
 50
180.0
 51
0.0
  0
ARC
  5
41
100
AcDbEntity
  8
AHJ
  6
BYBLOCK
 62
     0
100
AcDbCircle
 10
336.458862
 20
219.458893
 30
0.0
 40
0.25
100
AcDbArc
 50
0.0
 51
180.0
  0
ARC
  5
42
100
AcDbEntity
  8
AHJ
  6
BYBLOCK
 62
     0
100
AcDbCircle
 10
336.458862
 20
199.458893
 30
0.0
 40
0.25
100
AcDbArc
 50
0.0
 51
180.0
  0
ARC
  5
43
100
AcDbEntity
  8
AHJ
  6
BYBLOCK
 62
     0
100
AcDbCircle
 10
336.458862
 20
199.458893
 30
0.0
 40
0.25
100
AcDbArc
 50
180.0
 51
0.0
  0
ARC
  5
44
100
AcDbEntity
  8
AHJ
  6
BYBLOCK
 62
     0
100
AcDbCircle
 10
331.458862
 20
199.458893
 30
0.0
 40
0.25
100
AcDbArc
 50
180.0
 51
0.0
  0
ARC
  5
45
100
AcDbEntity
  8
AHJ
  6
BYBLOCK
 62
     0
100
AcDbCircle
 10
331.458862
 20
199.458893
 30
0.0
 40
0.25
100
AcDbArc
 50
0.0
 51
180.0
  0
ARC
  5
46
100
AcDbEntity
  8
AHJ
  6
BYBLOCK
 62
     0
100
AcDbCircle
 10
321.958862
 20
209.458893
 30
0.0
 40
0.25
100
AcDbArc
 50
180.0
 51
0.0
  0
ARC
  5
47
100
AcDbEntity
  8
AHJ
  6
BYBLOCK
 62
     0
100
AcDbCircle
 10
321.958862
 20
209.458893
 30
0.0
 40
0.25
100
AcDbArc
 50
0.0
 51
180.0
  0
ARC
  5
48
100
AcDbEntity
  8
AHJ
  6
BYBLOCK
 62
     0
100
AcDbCircle
 10
336.458862
 20
209.458893
 30
0.0
 40
0.25
100
AcDbArc
 50
0.0
 51
180.0
  0
ARC
  5
49
100
AcDbEntity
  8
AHJ
  6
BYBLOCK
 62
     0
100
AcDbCircle
 10
336.458862
 20
209.458893
 30
0.0
 40
0.25
100
AcDbArc
 50
180.0
 51
0.0
  0
ARC
  5
4A
100
AcDbEntity
  8
AHJ
  6
BYBLOCK
 62
     0
100
AcDbCircle
 10
300.458862
 20
209.458893
 30
0.0
 40
0.25
100
AcDbArc
 50
180.0
 51
0.0
  0
ARC
  5
4B
100
AcDbEntity
  8
AHJ
  6
BYBLOCK
 62
     0
100
AcDbCircle
 10
300.458862
 20
209.458893
 30
0.0
 40
0.25
100
AcDbArc
 50
0.0
 51
180.0
  0
ARC
  5
4C
100
AcDbEntity
  8
AHJ
  6
BYBLOCK
 62
     0
100
AcDbCircle
 10
321.958862
 20
209.458893
 30
0.0
 40
0.25
100
AcDbArc
 50
0.0
 51
180.0
  0
ARC
  5
4D
100
AcDbEntity
  8
AHJ
  6
BYBLOCK
 62
     0
100
AcDbCircle
 10
321.958862
 20
209.458893
 30
0.0
 40
0.25
100
AcDbArc
 50
180.0
 51
0.0
  0
ARC
  5
4E
100
AcDbEntity
  8
AHJ
  6
BYBLOCK
 62
     0
100
AcDbCircle
 10
300.458862
 20
199.458893
 30
0.0
 40
0.25
100
AcDbArc
 50
180.0
 51
0.0
  0
ARC
  5
4F
100
AcDbEntity
  8
AHJ
  6
BYBLOCK
 62
     0
100
AcDbCircle
 10
300.458862
 20
199.458893
 30
0.0
 40
0.25
100
AcDbArc
 50
0.0
 51
180.0
  0
ARC
  5
50
100
AcDbEntity
  8
AHJ
  6
BYBLOCK
 62
     0
100
AcDbCircle
 10
310.458862
 20
199.458893
 30
0.0
 40
0.25
100
AcDbArc
 50
0.0
 51
180.0
  0
ARC
  5
51
100
AcDbEntity
  8
AHJ
  6
BYBLOCK
 62
     0
100
AcDbCircle
 10
310.458862
 20
199.458893
 30
0.0
 40
0.25
100
AcDbArc
 50
180.0
 51
0.0
  0
ARC
  5
52
100
AcDbEntity
  8
AHJ
  6
BYBLOCK
 62
     0
100
AcDbCircle
 10
316.458862
 20
199.458893
 30
0.0
 40
0.25
100
AcDbArc
 50
0.0
 51
180.0
  0
ARC
  5
53
100
AcDbEntity
  8
AHJ
  6
BYBLOCK
 62
     0
100
AcDbCircle
 10
316.458862
 20
199.458893
 30
0.0
 40
0.25
100
AcDbArc
 50
180.0
 51
0.0
  0
ARC
  5
54
100
AcDbEntity
  8
AHJ
  6
BYBLOCK
 62
     0
100
AcDbCircle
 10
310.458862
 20
199.458893
 30
0.0
 40
0.25
100
AcDbArc
 50
180.0
 51
0.0
  0
ARC
  5
55
100
AcDbEntity
  8
AHJ
  6
BYBLOCK
 62
     0
100
AcDbCircle
 10
310.458862
 20
199.458893
 30
0.0
 40
0.25
100
AcDbArc
 50
0.0
 51
180.0
  0
ARC
  5
56
100
AcDbEntity
  8
AHJ
  6
BYBLOCK
 62
     0
100
AcDbCircle
 10
300.458862
 20
219.458893
 30
0.0
 40
0.25
100
AcDbArc
 50
180.0
 51
0.0
  0
ARC
  5
57
100
AcDbEntity
  8
AHJ
  6
BYBLOCK
 62
     0
100
AcDbCircle
 10
300.458862
 20
219.458893
 30
0.0
 40
0.25
100
AcDbArc
 50
0.0
 51
180.0
  0
ARC
  5
58
100
AcDbEntity
  8
AHJ
  6
BYBLOCK
 62
     0
100
AcDbCircle
 10
336.458862
 20
219.458893
 30
0.0
 40
0.25
100
AcDbArc
 50
0.0
 51
180.0
  0
ARC
  5
59
100
AcDbEntity
  8
AHJ
  6
BYBLOCK
 62
     0
100
AcDbCircle
 10
336.458862
 20
219.458893
 30
0.0
 40
0.25
100
AcDbArc
 50
180.0
 51
0.0
  0
ARC
  5
5A
100
AcDbEntity
  8
AHJ
  6
BYBLOCK
 62
     0
100
AcDbCircle
 10
119.877306
 20
219.458893
 30
0.0
 40
0.25
100
AcDbArc
 50
180.0
 51
0.0
  0
ARC
  5
5B
100
AcDbEntity
  8
AHJ
  6
BYBLOCK
 62
     0
100
AcDbCircle
 10
119.877306
 20
219.458893
 30
0.0
 40
0.25
100
AcDbArc
 50
0.0
 51
180.0
  0
ARC
  5
5C
100
AcDbEntity
  8
AHJ
  6
BYBLOCK
 62
     0
100
AcDbCircle
 10
300.458862
 20
219.458893
 30
0.0
 40
0.25
100
AcDbArc
 50
0.0
 51
180.0
  0
ARC
  5
5D
100
AcDbEntity
  8
AHJ
  6
BYBLOCK
 62
     0
100
AcDbCircle
 10
300.458862
 20
219.458893
 30
0.0
 40
0.25
100
AcDbArc
 50
180.0
 51
0.0
  0
ARC
  5
5E
100
AcDbEntity
  8
AHJ
  6
BYBLOCK
 62
     0
100
AcDbCircle
 10
119.877306
 20
219.458893
 30
0.0
 40
0.25
100
AcDbArc
 50
0.0
 51
180.0
  0
ARC
  5
5F
100
AcDbEntity
  8
AHJ
  6
BYBLOCK
 62
     0
100
AcDbCircle
 10
119.877306
 20
219.458893
 30
0.0
 40
0.25
100
AcDbArc
 50
180.0
 51
0.0
  0
ARC
  5
60
100
AcDbEntity
  8
AHJ
  6
BYBLOCK
 62
     0
100
AcDbCircle
 10
83.877306
 20
219.458893
 30
0.0
 40
0.25
100
AcDbArc
 50
180.0
 51
0.0
  0
ARC
  5
61
100
AcDbEntity
  8
AHJ
  6
BYBLOCK
 62
     0
100
AcDbCircle
 10
83.877306
 20
219.458893
 30
0.0
 40
0.25
100
AcDbArc
 50
0.0
 51
180.0
  0
ARC
  5
62
100
AcDbEntity
  8
AHJ
  6
BYBLOCK
 62
     0
100
AcDbCircle
 10
103.877306
 20
199.458893
 30
0.0
 40
0.25
100
AcDbArc
 50
180.0
 51
0.0
  0
ARC
  5
63
100
AcDbEntity
  8
AHJ
  6
BYBLOCK
 62
     0
100
AcDbCircle
 10
103.877306
 20
199.458893
 30
0.0
 40
0.25
100
AcDbArc
 50
0.0
 51
180.0
  0
ARC
  5
64
100
AcDbEntity
  8
AHJ
  6
BYBLOCK
 62
     0
100
AcDbCircle
 10
109.877306
 20
199.458893
 30
0.0
 40
0.25
100
AcDbArc
 50
0.0
 51
180.0
  0
ARC
  5
65
100
AcDbEntity
  8
AHJ
  6
BYBLOCK
 62
     0
100
AcDbCircle
 10
109.877306
 20
199.458893
 30
0.0
 40
0.25
100
AcDbArc
 50
180.0
 51
0.0
  0
ARC
  5
66
100
AcDbEntity
  8
AHJ
  6
BYBLOCK
 62
     0
100
AcDbCircle
 10
119.877306
 20
199.458893
 30
0.0
 40
0.25
100
AcDbArc
 50
0.0
 51
180.0
  0
ARC
  5
67
100
AcDbEntity
  8
AHJ
  6
BYBLOCK
 62
     0
100
AcDbCircle
 10
119.877306
 20
199.458893
 30
0.0
 40
0.25
100
AcDbArc
 50
180.0
 51
0.0
  0
ARC
  5
68
100
AcDbEntity
  8
AHJ
  6
BYBLOCK
 62
     0
100
AcDbCircle
 10
109.877306
 20
199.458893
 30
0.0
 40
0.25
100
AcDbArc
 50
180.0
 51
0.0
  0
ARC
  5
69
100
AcDbEntity
  8
AHJ
  6
BYBLOCK
 62
     0
100
AcDbCircle
 10
109.877306
 20
199.458893
 30
0.0
 40
0.25
100
AcDbArc
 50
0.0
 51
180.0
  0
ARC
  5
6A
100
AcDbEntity
  8
AHJ
  6
BYBLOCK
 62
     0
100
AcDbCircle
 10
119.877306
 20
209.458893
 30
0.0
 40
0.25
100
AcDbArc
 50
0.0
 51
180.0
  0
ARC
  5
6B
100
AcDbEntity
  8
AHJ
  6
BYBLOCK
 62
     0
100
AcDbCircle
 10
119.877306
 20
209.458893
 30
0.0
 40
0.25
100
AcDbArc
 50
180.0
 51
0.0
  0
ARC
  5
6C
100
AcDbEntity
  8
AHJ
  6
BYBLOCK
 62
     0
100
AcDbCircle
 10
98.377306
 20
209.458893
 30
0.0
 40
0.25
100
AcDbArc
 50
180.0
 51
0.0
  0
ARC
  5
6D
100
AcDbEntity
  8
AHJ
  6
BYBLOCK
 62
     0
100
AcDbCircle
 10
98.377306
 20
209.458893
 30
0.0
 40
0.25
100
AcDbArc
 50
0.0
 51
180.0
  0
ARC
  5
6E
100
AcDbEntity
  8
AHJ
  6
BYBLOCK
 62
     0
100
AcDbCircle
 10
98.377306
 20
209.458893
 30
0.0
 40
0.25
100
AcDbArc
 50
0.0
 51
180.0
  0
ARC
  5
6F
100
AcDbEntity
  8
AHJ
  6
BYBLOCK
 62
     0
100
AcDbCircle
 10
98.377306
 20
209.458893
 30
0.0
 40
0.25
100
AcDbArc
 50
180.0
 51
0.0
  0
ARC
  5
70
100
AcDbEntity
  8
AHJ
  6
BYBLOCK
 62
     0
100
AcDbCircle
 10
83.877306
 20
209.458893
 30
0.0
 40
0.25
100
AcDbArc
 50
180.0
 51
0.0
  0
ARC
  5
71
100
AcDbEntity
  8
AHJ
  6
BYBLOCK
 62
     0
100
AcDbCircle
 10
83.877306
 20
209.458893
 30
0.0
 40
0.25
100
AcDbArc
 50
0.0
 51
180.0
  0
ARC
  5
72
100
AcDbEntity
  8
AHJ
  6
BYBLOCK
 62
     0
100
AcDbCircle
 10
75.877306
 20
219.458893
 30
0.0
 40
0.25
100
AcDbArc
 50
180.0
 51
0.0
  0
ARC
  5
73
100
AcDbEntity
  8
AHJ
  6
BYBLOCK
 62
     0
100
AcDbCircle
 10
75.877306
 20
219.458893
 30
0.0
 40
0.25
100
AcDbArc
 50
0.0
 51
180.0
  0
ARC
  5
74
100
AcDbEntity
  8
AHJ
  6
BYBLOCK
 62
     0
100
AcDbCircle
 10
83.877306
 20
219.458893
 30
0.0
 40
0.25
100
AcDbArc
 50
0.0
 51
180.0
  0
ARC
  5
75
100
AcDbEntity
  8
AHJ
  6
BYBLOCK
 62
     0
100
AcDbCircle
 10
83.877306
 20
219.458893
 30
0.0
 40
0.25
100
AcDbArc
 50
180.0
 51
0.0
  0
ARC
  5
76
100
AcDbEntity
  8
AHJ
  6
BYBLOCK
 62
     0
100
AcDbCircle
 10
83.877306
 20
199.458893
 30
0.0
 40
0.25
100
AcDbArc
 50
180.0
 51
0.0
  0
ARC
  5
77
100
AcDbEntity
  8
AHJ
  6
BYBLOCK
 62
     0
100
AcDbCircle
 10
83.877306
 20
199.458893
 30
0.0
 40
0.25
100
AcDbArc
 50
0.0
 51
180.0
  0
ARC
  5
78
100
AcDbEntity
  8
AHJ
  6
BYBLOCK
 62
     0
100
AcDbCircle
 10
88.877306
 20
199.458893
 30
0.0
 40
0.25
100
AcDbArc
 50
0.0
 51
180.0
  0
ARC
  5
79
100
AcDbEntity
  8
AHJ
  6
BYBLOCK
 62
     0
100
AcDbCircle
 10
88.877306
 20
199.458893
 30
0.0
 40
0.25
100
AcDbArc
 50
180.0
 51
0.0
  0
ARC
  5
7A
100
AcDbEntity
  8
AHJ
  6
BYBLOCK
 62
     0
100
AcDbCircle
 10
379.241589
 20
135.795275
 30
0.0
 40
0.25
100
AcDbArc
 50
270.0
 51
90.0
  0
ARC
  5
7B
100
AcDbEntity
  8
AHJ
  6
BYBLOCK
 62
     0
100
AcDbCircle
 10
379.241589
 20
135.795275
 30
0.0
 40
0.25
100
AcDbArc
 50
90.0
 51
270.0
  0
ARC
  5
7C
100
AcDbEntity
  8
AHJ
  6
BYBLOCK
 62
     0
100
AcDbCircle
 10
379.241589
 20
170.795275
 30
0.0
 40
0.25
100
AcDbArc
 50
90.0
 51
270.0
  0
ARC
  5
7D
100
AcDbEntity
  8
AHJ
  6
BYBLOCK
 62
     0
100
AcDbCircle
 10
379.241589
 20
170.795275
 30
0.0
 40
0.25
100
AcDbArc
 50
270.0
 51
90.0
  0
LINE
  5
7E
100
AcDbEntity
  8
AHJ
  6
BYBLOCK
 62
     0
100
AcDbLine
 10
379.241589
 20
170.295275
 30
0.0
 11
379.241589
 21
169.795275
 31
0.0
  0
LINE
  5
7F
100
AcDbEntity
  8
AHJ
  6
BYBLOCK
 62
     0
100
AcDbLine
 10
379.241589
 20
136.295275
 30
0.0
 11
379.241589
 21
136.795275
 31
0.0
  0
TEXT
  5
80
100
AcDbEntity
  8
0
 62
     0
100
AcDbText
 10
378.241589
 20
150.438133
 30
0.0
 40
3.0
  1
35
 50
90.0
100
AcDbText
1001
ACAD
1000
MTEXTBEGIN
1070
    73
1070
     1
1070
    44
1040
1.0
1070
    74
1070
     0
1000
MTEXTEND
  0
LINE
  5
81
100
AcDbEntity
  8
AHJ
  6
BYBLOCK
 62
     0
100
AcDbLine
 10
88.377306
 20
199.458893
 30
0.0
 11
87.877306
 21
199.458893
 31
0.0
  0
LINE
  5
82
100
AcDbEntity
  8
AHJ
  6
BYBLOCK
 62
     0
100
AcDbLine
 10
84.377306
 20
199.458893
 30
0.0
 11
84.877306
 21
199.458893
 31
0.0
  0
TEXT
  5
83
100
AcDbEntity
  8
0
 62
     0
100
AcDbText
 10
84.948734
 20
200.458893
 30
0.0
 40
3.0
  1
5
100
AcDbText
1001
ACAD
1000
MTEXTBEGIN
1070
    73
1070
     1
1070
    44
1040
1.0
1070
    74
1070
     0
1000
MTEXTEND
  0
LINE
  5
84
100
AcDbEntity
  8
AHJ
  6
BYBLOCK
 62
     0
100
AcDbLine
 10
83.377306
 20
219.458893
 30
0.0
 11
82.877306
 21
219.458893
 31
0.0
  0
LINE
  5
85
100
AcDbEntity
  8
AHJ
  6
BYBLOCK
 62
     0
100
AcDbLine
 10
76.377306
 20
219.458893
 30
0.0
 11
76.877306
 21
219.458893
 31
0.0
  0
TEXT
  5
86
100
AcDbEntity
  8
0
 62
     0
100
AcDbText
 10
78.448734
 20
220.458893
 30
0.0
 40
3.0
  1
8
100
AcDbText
1001
ACAD
1000
MTEXTBEGIN
1070
    73
1070
     1
1070
    44
1040
1.0
1070
    74
1070
     0
1000
MTEXTEND
  0
LINE
  5
87
100
AcDbEntity
  8
AHJ
  6
BYBLOCK
 62
     0
100
AcDbLine
 10
84.377306
 20
209.458893
 30
0.0
 11
84.877306
 21
209.458893
 31
0.0
  0
LINE
  5
88
100
AcDbEntity
  8
AHJ
  6
BYBLOCK
 62
     0
100
AcDbLine
 10
97.877306
 20
209.458893
 30
0.0
 11
97.377306
 21
209.458893
 31
0.0
  0
TEXT
  5
89
100
AcDbEntity
  8
0
 62
     0
100
AcDbText
 10
85.91302
 20
210.458893
 30
0.0
 40
3.0
  1
14.5
100
AcDbText
1001
ACAD
1000
MTEXTBEGIN
1070
    73
1070
     1
1070
    44
1040
1.0
1070
    74
1070
     0
1000
MTEXTEND
  0
LINE
  5
8A
100
AcDbEntity
  8
AHJ
  6
BYBLOCK
 62
     0
100
AcDbLine
 10
98.877306
 20
209.458893
 30
0.0
 11
99.377306
 21
209.458893
 31
0.0
  0
LINE
  5
8B
100
AcDbEntity
  8
AHJ
  6
BYBLOCK
 62
     0
100
AcDbLine
 10
119.377306
 20
209.458893
 30
0.0
 11
118.877306
 21
209.458893
 31
0.0
  0
TEXT
  5
8C
100
AcDbEntity
  8
0
 62
     0
100
AcDbText
 10
104.127306
 20
210.458893
 30
0.0
 40
3.0
  1
21.5
100
AcDbText
1001
ACAD
1000
MTEXTBEGIN
1070
    73
1070
     1
1070
    44
1040
1.0
1070
    74
1070
     0
1000
MTEXTEND
  0
LINE
  5
8D
100
AcDbEntity
  8
AHJ
  6
BYBLOCK
 62
     0
100
AcDbLine
 10
110.377306
 20
199.458893
 30
0.0
 11
110.877306
 21
199.458893
 31
0.0
  0
LINE
  5
8E
100
AcDbEntity
  8
AHJ
  6
BYBLOCK
 62
     0
100
AcDbLine
 10
119.377306
 20
199.458893
 30
0.0
 11
118.877306
 21
199.458893
 31
0.0
  0
TEXT
  5
8F
100
AcDbEntity
  8
0
 62
     0
100
AcDbText
 10
111.805877
 20
200.458893
 30
0.0
 40
3.0
  1
10
100
AcDbText
1001
ACAD
1000
MTEXTBEGIN
1070
    73
1070
     1
1070
    44
1040
1.0
1070
    74
1070
     0
1000
MTEXTEND
  0
LINE
  5
90
100
AcDbEntity
  8
AHJ
  6
BYBLOCK
 62
     0
100
AcDbLine
 10
109.377306
 20
199.458893
 30
0.0
 11
108.877306
 21
199.458893
 31
0.0
  0
LINE
  5
91
100
AcDbEntity
  8
AHJ
  6
BYBLOCK
 62
     0
100
AcDbLine
 10
104.377306
 20
199.458893
 30
0.0
 11
104.877306
 21
199.458893
 31
0.0
  0
TEXT
  5
92
100
AcDbEntity
  8
0
 62
     0
100
AcDbText
 10
105.377306
 20
200.458893
 30
0.0
 40
3.0
  1
6
100
AcDbText
1001
ACAD
1000
MTEXTBEGIN
1070
    73
1070
     1
1070
    44
1040
1.0
1070
    74
1070
     0
1000
MTEXTEND
  0
LINE
  5
93
100
AcDbEntity
  8
AHJ
  6
BYBLOCK
 62
     0
100
AcDbLine
 10
84.377306
 20
219.458893
 30
0.0
 11
84.877306
 21
219.458893
 31
0.0
  0
LINE
  5
94
100
AcDbEntity
  8
AHJ
  6
BYBLOCK
 62
     0
100
AcDbLine
 10
119.377306
 20
219.458893
 30
0.0
 11
118.877306
 21
219.458893
 31
0.0
  0
TEXT
  5
95
100
AcDbEntity
  8
0
 62
     0
100
AcDbText
 10
99.020163
 20
220.458893
 30
0.0
 40
3.0
  1
36
100
AcDbText
1001
ACAD
1000
MTEXTBEGIN
1070
    73
1070
     1
1070
    44
1040
1.0
1070
    74
1070
     0
1000
MTEXTEND
  0
LINE
  5
96
100
AcDbEntity
  8
AHJ
  6
BYBLOCK
 62
     0
100
AcDbLine
 10
299.958862
 20
219.458893
 30
0.0
 11
299.458862
 21
219.458893
 31
0.0
  0
LINE
  5
97
100
AcDbEntity
  8
AHJ
  6
BYBLOCK
 62
     0
100
AcDbLine
 10
120.377306
 20
219.458893
 30
0.0
 11
120.877306
 21
219.458893
 31
0.0
  0
TEXT
  5
98
100
AcDbEntity
  8
0
 62
     0
100
AcDbText
 10
202.010941
 20
220.458893
 30
0.0
 40
3.0
  1
W - 48
100
AcDbText
1001
ACAD
1000
MTEXTBEGIN
1070
    73
1070
     1
1070
    44
1040
1.0
1070
    74
1070
     0
1000
MTEXTEND
  0
LINE
  5
99
100
AcDbEntity
  8
AHJ
  6
BYBLOCK
 62
     0
100
AcDbLine
 10
335.958862
 20
219.458893
 30
0.0
 11
335.458862
 21
219.458893
 31
0.0
  0
LINE
  5
9A
100
AcDbEntity
  8
AHJ
  6
BYBLOCK
 62
     0
100
AcDbLine
 10
300.958862
 20
219.458893
 30
0.0
 11
301.458862
 21
219.458893
 31
0.0
  0
TEXT
  5
9B
100
AcDbEntity
  8
0
 62
     0
100
AcDbText
 10
315.601719
 20
220.458893
 30
0.0
 40
3.0
  1
36
100
AcDbText
1001
ACAD
1000
MTEXTBEGIN
1070
    73
1070
     1
1070
    44
1040
1.0
1070
    74
1070
     0
1000
MTEXTEND
  0
LINE
  5
9C
100
AcDbEntity
  8
AHJ
  6
BYBLOCK
 62
     0
100
AcDbLine
 10
310.958862
 20
199.458893
 30
0.0
 11
311.458862
 21
199.458893
 31
0.0
  0
LINE
  5
9D
100
AcDbEntity
  8
AHJ
  6
BYBLOCK
 62
     0
100
AcDbLine
 10
315.958862
 20
199.458893
 30
0.0
 11
315.458862
 21
199.458893
 31
0.0
  0
TEXT
  5
9E
100
AcDbEntity
  8
0
 62
     0
100
AcDbText
 10
311.958862
 20
200.458893
 30
0.0
 40
3.0
  1
6
100
AcDbText
1001
ACAD
1000
MTEXTBEGIN
1070
    73
1070
     1
1070
    44
1040
1.0
1070
    74
1070
     0
1000
MTEXTEND
  0
LINE
  5
9F
100
AcDbEntity
  8
AHJ
  6
BYBLOCK
 62
     0
100
AcDbLine
 10
309.958862
 20
199.458893
 30
0.0
 11
309.458862
 21
199.458893
 31
0.0
  0
LINE
  5
A0
100
AcDbEntity
  8
AHJ
  6
BYBLOCK
 62
     0
100
AcDbLine
 10
300.958862
 20
199.458893
 30
0.0
 11
301.458862
 21
199.458893
 31
0.0
  0
TEXT
  5
A1
100
AcDbEntity
  8
0
 62
     0
100
AcDbText
 10
302.387433
 20
200.458893
 30
0.0
 40
3.0
  1
10
100
AcDbText
1001
ACAD
1000
MTEXTBEGIN
1070
    73
1070
     1
1070
    44
1040
1.0
1070
    74
1070
     0
1000
MTEXTEND
  0
LINE
  5
A2
100
AcDbEntity
  8
AHJ
  6
BYBLOCK
 62
     0
100
AcDbLine
 10
321.458862
 20
209.458893
 30
0.0
 11
320.958862
 21
209.458893
 31
0.0
  0
LINE
  5
A3
100
AcDbEntity
  8
AHJ
  6
BYBLOCK
 62
     0
100
AcDbLine
 10
300.958862
 20
209.458893
 30
0.0
 11
301.458862
 21
209.458893
 31
0.0
  0
TEXT
  5
A4
100
AcDbEntity
  8
0
 62
     0
100
AcDbText
 10
306.208862
 20
210.458893
 30
0.0
 40
3.0
  1
21.5
100
AcDbText
1001
ACAD
1000
MTEXTBEGIN
1070
    73
1070
     1
1070
    44
1040
1.0
1070
    74
1070
     0
1000
MTEXTEND
  0
LINE
  5
A5
100
AcDbEntity
  8
AHJ
  6
BYBLOCK
 62
     0
100
AcDbLine
 10
335.958862
 20
209.458893
 30
0.0
 11
335.458862
 21
209.458893
 31
0.0
  0
LINE
  5
A6
100
AcDbEntity
  8
AHJ
  6
BYBLOCK
 62
     0
100
AcDbLine
 10
322.458862
 20
209.458893
 30
0.0
 11
322.958862
 21
209.458893
 31
0.0
  0
TEXT
  5
A7
100
AcDbEntity
  8
0
 62
     0
100
AcDbText
 10
323.994576
 20
210.458893
 30
0.0
 40
3.0
  1
14.5
100
AcDbText
1001
ACAD
1000
MTEXTBEGIN
1070
    73
1070
     1
1070
    44
1040
1.0
1070
    74
1070
     0
1000
MTEXTEND
  0
LINE
  5
A8
100
AcDbEntity
  8
AHJ
  6
BYBLOCK
 62
     0
100
AcDbLine
 10
331.958862
 20
199.458893
 30
0.0
 11
332.458862
 21
199.458893
 31
0.0
  0
LINE
  5
A9
100
AcDbEntity
  8
AHJ
  6
BYBLOCK
 62
     0
100
AcDbLine
 10
335.958862
 20
199.458893
 30
0.0
 11
335.458862
 21
199.458893
 31
0.0
  0
TEXT
  5
AA
100
AcDbEntity
  8
0
 62
     0
100
AcDbText
 10
332.53029
 20
200.458893
 30
0.0
 40
3.0
  1
5
100
AcDbText
1001
ACAD
1000
MTEXTBEGIN
1070
    73
1070
     1
1070
    44
1040
1.0
1070
    74
1070
     0
1000
MTEXTEND
  0
LINE
  5
AB
100
AcDbEntity
  8
AHJ
  6
BYBLOCK
 62
     0
100
AcDbLine
 10
336.958862
 20
219.458893
 30
0.0
 11
337.458862
 21
219.458893
 31
0.0
  0
LINE
  5
AC
100
AcDbEntity
  8
AHJ
  6
BYBLOCK
 62
     0
100
AcDbLine
 10
343.958862
 20
219.458893
 30
0.0
 11
343.458862
 21
219.458893
 31
0.0
  0
TEXT
  5
AD
100
AcDbEntity
  8
0
 62
     0
100
AcDbText
 10
339.03029
 20
220.458893
 30
0.0
 40
3.0
  1
8
100
AcDbText
1001
ACAD
1000
MTEXTBEGIN
1070
    73
1070
     1
1070
    44
1040
1.0
1070
    74
1070
     0
1000
MTEXTEND
  0
LINE
  5
AE
100
AcDbEntity
  8
AHJ
  6
BYBLOCK
 62
     0
100
AcDbLine
 10
96.377306
 20
49.427568
 30
0.0
 11
96.877306
 21
49.427568
 31
0.0
  0
LINE
  5
AF
100
AcDbEntity
  8
AHJ
  6
BYBLOCK
 62
     0
100
AcDbLine
 10
323.958862
 20
49.427568
 30
0.0
 11
323.458862
 21
49.427568
 31
0.0
  0
TEXT
  5
B0
100
AcDbEntity
  8
0
 62
     0
100
AcDbText
 10
208.453798
 20
50.427568
 30
0.0
 40
3.0
  1
W
100
AcDbText
1001
ACAD
1000
MTEXTBEGIN
1070
    73
1070
     1
1070
    44
1040
1.0
1070
    74
1070
     0
1000
MTEXTEND
  0
LINE
  5
B1
100
AcDbEntity
  8
AHJ
  6
BYBLOCK
 62
     0
100
AcDbLine
 10
98.877306
 20
57.427568
 30
0.0
 11
99.377306
 21
57.427568
 31
0.0
  0
LINE
  5
B2
100
AcDbEntity
  8
AHJ
  6
BYBLOCK
 62
     0
100
AcDbLine
 10
321.458862
 20
57.427568
 30
0.0
 11
320.958862
 21
57.427568
 31
0.0
  0
TEXT
  5
B3
100
AcDbEntity
  8
0
 62
     0
100
AcDbText
 10
203.439512
 20
58.427568
 30
0.0
 40
3.0
  1
W - 5
100
AcDbText
1001
ACAD
1000
MTEXTBEGIN
1070
    73
1070
     1
1070
    44
1040
1.0
1070
    74
1070
     0
1000
MTEXTEND
  0
LINE
  5
B4
100
AcDbEntity
  8
AHJ
  6
BYBLOCK
 62
     0
100
AcDbLine
 10
321.458862
 20
57.427568
 30
0.0
 11
320.958862
 21
57.427568
 31
0.0
  0
LINE
  5
B5
100
AcDbEntity
  8
AHJ
  6
BYBLOCK
 62
     0
100
AcDbLine
 10
324.958862
 20
57.427568
 30
0.0
 11
325.458862
 21
57.427568
 31
0.0
  0
TEXT
  5
B6
100
AcDbEntity
  8
0
 62
     0
100
AcDbText
 10
327.03029
 20
58.427568
 30
0.0
 40
3.0
  1
2.5
 50
360.0
100
AcDbText
  0
TEXT
  5
B7
100
AcDbEntity
  8
0
 62
     0
100
AcDbText
 10
314.435431
 20
66.396801
 30
0.0
 40
3.0
  1
7.5
 50
360.0
100
AcDbText
1001
ACAD
1000
MTEXTBEGIN
1070
    73
1070
     1
1070
    44
1040
1.0
1070
    74
1070
     0
1000
MTEXTEND
  0
LINE
  5
B8
100
AcDbEntity
  8
AHJ
  6
BYBLOCK
 62
     0
100
AcDbLine
 10
314.958862
 20
65.427568
 30
0.0
 11
315.458862
 21
65.427568
 31
0.0
  0
LINE
  5
B9
100
AcDbEntity
  8
AHJ
  6
BYBLOCK
 62
     0
100
AcDbLine
 10
321.458862
 20
65.427568
 30
0.0
 11
320.958862
 21
65.427568
 31
0.0
  0
LINE
  5
BA
100
AcDbEntity
  8
AHJ
  6
BYBLOCK
 62
     0
100
AcDbLine
 10
98.877306
 20
57.427568
 30
0.0
 11
99.377306
 21
57.427568
 31
0.0
  0
LINE
  5
BB
100
AcDbEntity
  8
AHJ
  6
BYBLOCK
 62
     0
100
AcDbLine
 10
95.377306
 20
57.427568
 30
0.0
 11
94.877306
 21
57.427568
 31
0.0
  0
TEXT
  5
BC
100
AcDbEntity
  8
0
 62
     0
100
AcDbText
 10
86.16302
 20
58.427568
 30
0.0
 40
3.0
  1
2.5
100
AcDbText
  0
TEXT
  5
BD
100
AcDbEntity
  8
0
 62
     0
100
AcDbText
 10
98.757879
 20
66.396801
 30
0.0
 40
3.0
  1
7.5
100
AcDbText
1001
ACAD
1000
MTEXTBEGIN
1070
    73
1070
     1
1070
    44
1040
1.0
1070
    74
1070
     0
1000
MTEXTEND
  0
LINE
  5
BE
100
AcDbEntity
  8
AHJ
  6
BYBLOCK
 62
     0
100
AcDbLine
 10
105.377306
 20
65.427568
 30
0.0
 11
104.877306
 21
65.427568
 31
0.0
  0
LINE
  5
BF
100
AcDbEntity
  8
AHJ
  6
BYBLOCK
 62
     0
100
AcDbLine
 10
98.877306
 20
65.427568
 30
0.0
 11
99.377306
 21
65.427568
 31
0.0
  0
TEXT
  5
C0
100
AcDbEntity
  8
WAKU
 62
     2
100
AcDbText
 10
370.050699
 20
14.0
 30
0.0
 40
1.5
  1
整理番号
100
AcDbText
  0
TEXT
  5
C2
100
AcDbEntity
  8
WAKU
 62
     2
100
AcDbText
 10
370.15
 20
6.0
 30
0.0
 40
1.5
  1
図面ＮＯ．
 72
     1
 11
374.0
 21
6.0
 31
0.0
100
AcDbText
  0
LINE
  5
C3
100
AcDbEntity
  8
WAKU
 62
     3
100
AcDbLine
 10
369.0
 20
0.0
 30
0.0
 11
369.0
 21
16.0
 31
0.0
  0
LINE
  5
C4
100
AcDbEntity
  8
WAKU
 62
     1
100
AcDbLine
 10
384.0
 20
0.0
 30
0.0
 11
384.0
 21
16.0
 31
0.0
  0
TEXT
  5
C5
100
AcDbEntity
  8
WAKU
 62
     2
100
AcDbText
 10
354.876198
 20
14.0
 30
0.0
 40
1.5
  1
作図日
 72
     1
 11
357.276198
 21
14.0
 31
0.0
100
AcDbText
  0
TEXT
  5
C6
100
AcDbEntity
  8
WAKU
 62
     2
100
AcDbText
 10
354.876198
 20
6.0
 30
0.0
 40
1.5
  1
修正日
 72
     1
 11
357.276198
 21
6.0
 31
0.0
100
AcDbText
  0
TEXT
  5
C7
100
AcDbEntity
  8
WAKU
 62
     2
100
AcDbText
 10
348.0
 20
14.0
 30
0.0
 40
1.5
  1
担  当
100
AcDbText
  0
LINE
  5
C8
100
AcDbEntity
  8
WAKU
 62
     1
100
AcDbLine
 10
346.5
 20
5.5
 30
0.0
 11
354.0
 21
5.5
 31
0.0
  0
TEXT
  5
C9
100
AcDbEntity
  8
WAKU
 62
     2
100
AcDbText
 10
348.0
 20
6.0
 30
0.0
 40
1.5
  1
製　図
100
AcDbText
  0
LINE
  5
CA
100
AcDbEntity
  8
WAKU
 62
     1
100
AcDbLine
 10
339.0
 20
13.5
 30
0.0
 11
354.0
 21
13.5
 31
0.0
  0
TEXT
  5
CB
100
AcDbEntity
  8
WAKU
 62
     2
100
AcDbText
 10
340.5
 20
14.0
 30
0.0
 40
1.5
  1
検　図
100
AcDbText
  0
LINE
  5
CC
100
AcDbEntity
  8
WAKU
 62
     1
100
AcDbLine
 10
346.5
 20
0.0
 30
0.0
 11
346.5
 21
16.0
 31
0.0
  0
LINE
  5
CD
100
AcDbEntity
  8
WAKU
 62
     1
100
AcDbLine
 10
339.0
 20
0.0
 30
0.0
 11
339.0
 21
16.0
 31
0.0
  0
LINE
  5
CE
100
AcDbEntity
  8
WAKU
 62
     1
100
AcDbLine
 10
354.0
 20
0.0
 30
0.0
 11
354.0
 21
16.0
 31
0.0
  0
LINE
  5
CF
100
AcDbEntity
  8
WAKU
 62
     3
100
AcDbLine
 10
324.0
 20
0.0
 30
0.0
 11
324.0
 21
16.0
 31
0.0
  0
TEXT
  5
D0
100
AcDbEntity
  8
WAKU
 62
     2
100
AcDbText
 10
324.87704
 20
14.0
 30
0.0
 40
1.5
  1
縮 尺
100
AcDbText
  0
TEXT
  5
D1
100
AcDbEntity
  8
WAKU
 62
     2
100
AcDbText
 10
324.608338
 20
6.0
 30
0.0
 40
1.5
  1
ファイルＮｏ．
 72
     1
 11
330.258338
 21
6.0
 31
0.0
100
AcDbText
  0
TEXT
  5
D2
100
AcDbEntity
  8
WAKU
 62
     2
100
AcDbText
 10
264.935351
 20
13.108234
 30
0.0
 40
2.0
  1
タイプ
 72
     1
 11
268.402017
 21
13.108234
 31
0.0
100
AcDbText
  0
TEXT
  5
D3
100
AcDbEntity
  8
WAKU
 62
     2
100
AcDbText
 10
265.068684
 20
5.108234
 30
0.0
 40
2.0
  1
名　称
 72
     1
 11
268.402017
 21
5.108234
 31
0.0
100
AcDbText
  0
LINE
  5
D4
100
AcDbEntity
  8
WAKU
 62
     1
100
AcDbLine
 10
264.0
 20
0.0
 30
0.0
 11
264.0
 21
16.0
 31
0.0
  0
LINE
  5
D5
100
AcDbEntity
  8
WAKU
100
AcDbLine
 10
395.0
 20
0.0
 30
0.0
 11
395.0
 21
275.0
 31
0.0
  0
TEXT
  5
D6
100
AcDbEntity
  8
WAKU
 62
     2
100
AcDbText
 10
205.568684
 20
13.108234
 30
0.0
 40
2.0
  1
品　種
 72
     1
 11
208.902017
 21
13.108234
 31
0.0
100
AcDbText
  0
LINE
  5
D7
100
AcDbEntity
  8
WAKU
 62
     3
100
AcDbLine
 10
204.5
 20
0.0
 30
0.0
 11
204.5
 21
16.0
 31
0.0
  0
TEXT
  5
D8
100
AcDbEntity
  8
WAKU
 62
     2
100
AcDbText
 10
205.568684
 20
5.108234
 30
0.0
 40
2.0
  1
図面名
 72
     1
 11
208.902017
 21
5.108234
 31
0.0
100
AcDbText
  0
TEXT
  5
D9
100
AcDbEntity
  8
WAKU
 62
     4
100
AcDbText
 10
181.312611
 20
9.01284
 30
0.0
 40
2.2
  1
硝子建材事業本部
 72
     1
 11
191.579277
 21
9.01284
 31
0.0
100
AcDbText
  0
LINE
  5
DA
100
AcDbEntity
  8
ALS
 62
     0
100
AcDbLine
 10
156.275015
 20
8.884801
 30
0.0
 11
156.342881
 21
8.952668
 31
0.0
  0
LINE
  5
DC
100
AcDbEntity
  8
ALS
 62
     0
100
AcDbLine
 10
155.983333
 20
8.884801
 30
0.0
 11
156.421616
 21
9.323084
 31
0.0
  0
LINE
  5
DD
100
AcDbEntity
  8
ALS
100
AcDbLine
 10
155.691652
 20
8.884801
 30
0.0
 11
156.50035
 21
9.6935
 31
0.0
  0
LINE
  5
DE
100
AcDbEntity
  8
ALS
 62
     0
100
AcDbLine
 10
155.39997
 20
8.884801
 30
0.0
 11
156.34377
 21
9.828601
 31
0.0
  0
LINE
  5
DF
100
AcDbEntity
  8
ALS
 62
     0
100
AcDbLine
 10
156.704207
 20
10.772401
 30
0.0
 11
156.736553
 21
10.804747
 31
0.0
  0
LINE
  5
E0
100
AcDbEntity
  8
ALS
100
AcDbLine
 10
156.729678
 20
10.772401
 30
0.0
 11
155.307971
 21
10.772401
 31
0.0
  0
LINE
  5
E1
100
AcDbEntity
  8
ALS
100
AcDbLine
 10
156.328456
 20
8.884801
 30
0.0
 11
156.529067
 21
9.828601
 31
0.0
  0
LINE
  5
E2
100
AcDbEntity
  8
ALS
 62
     0
100
AcDbLine
 10
156.412525
 20
10.772401
 30
0.0
 11
156.815287
 21
11.175163
 31
0.0
  0
LINE
  5
E3
100
AcDbEntity
  8
ALS
 62
     0
100
AcDbLine
 10
156.120844
 20
10.772401
 30
0.0
 11
156.894022
 21
11.545579
 31
0.0
  0
LINE
  5
E4
100
AcDbEntity
  8
ALS
 62
     0
100
AcDbLine
 10
155.829162
 20
10.772401
 30
0.0
 11
156.772962
 21
11.716201
 31
0.0
  0
LINE
  5
E5
100
AcDbEntity
  8
ALS
 62
     0
100
AcDbLine
 10
155.537481
 20
10.772401
 30
0.0
 11
156.481281
 21
11.716201
 31
0.0
  0
LINE
  5
E6
100
AcDbEntity
  8
ALS
100
AcDbLine
 10
156.729678
 20
10.772401
 30
0.0
 11
156.930288
 21
11.716201
 31
0.0
  0
LINE
  5
E7
100
AcDbEntity
  8
ALS
 62
     0
100
AcDbLine
 10
154.326117
 20
11.019446
 30
0.0
 11
155.007542
 21
11.700871
 31
0.0
  0
LINE
  5
E8
100
AcDbEntity
  8
ALS
 62
     0
100
AcDbLine
 10
151.594805
 20
11.204949
 30
0.0
 11
152.03287
 21
11.643014
 31
0.0
  0
LINE
  5
E9
100
AcDbEntity
  8
ALS
100
AcDbLine
 10
154.316327
 20
11.716201
 30
0.0
 11
152.379617
 21
11.716201
 31
0.0
  0
ARC
  5
EA
100
AcDbEntity
  8
ALS
100
AcDbCircle
 10
155.169012
 20
10.858201
 30
0.0
 40
0.858
100
AcDbArc
 50
90.0
 51
168.0
  0
ARC
  5
EB
100
AcDbEntity
  8
ALS
100
AcDbCircle
 10
152.379617
 20
10.858201
 30
0.0
 40
0.858
100
AcDbArc
 50
90.0
 51
168.0
  0
LINE
  5
EC
100
AcDbEntity
  8
ALS
100
AcDbLine
 10
150.995613
 20
11.716201
 30
0.0
 11
150.189116
 21
11.716201
 31
0.0
  0
ARC
  5
ED
100
AcDbEntity
  8
ALS
 62
     4
100
AcDbCircle
 10
150.189116
 20
10.858201
 30
0.0
 40
0.858
100
AcDbArc
 50
90.0
 51
148.5
  0
LINE
  5
EE
100
AcDbEntity
  8
ALS
 62
     0
100
AcDbLine
 10
154.154949
 20
9.098188
 30
0.0
 11
155.07905
 21
10.022289
 31
0.0
  0
LINE
  5
EF
100
AcDbEntity
  8
ALS
 62
     0
100
AcDbLine
 10
154.313729
 20
8.965287
 30
0.0
 11
155.177044
 21
9.828601
 31
0.0
  0
LINE
  5
F0
100
AcDbEntity
  8
ALS
 62
     0
100
AcDbLine
 10
154.04846
 20
9.283381
 30
0.0
 11
155.157785
 21
10.392705
 31
0.0
  0
LINE
  5
F1
100
AcDbEntity
  8
ALS
 62
     0
100
AcDbLine
 10
153.517057
 20
9.043659
 30
0.0
 11
153.718842
 21
9.245444
 31
0.0
  0
LINE
  5
F2
100
AcDbEntity
  8
ALS
 62
     0
100
AcDbLine
 10
153.067871
 20
8.886155
 30
0.0
 11
153.889405
 21
9.707688
 31
0.0
  0
LINE
  5
F3
100
AcDbEntity
  8
ALS
 62
     0
100
AcDbLine
 10
152.483155
 20
8.884801
 30
0.0
 11
153.941755
 21
10.343401
 31
0.0
  0
LINE
  5
F4
100
AcDbEntity
  8
ALS
 62
     0
100
AcDbLine
 10
154.079073
 20
10.772401
 30
0.0
 11
154.125607
 21
10.818936
 31
0.0
  0
LINE
  5
F5
100
AcDbEntity
  8
ALS
 62
     0
100
AcDbLine
 10
152.191473
 20
8.884801
 30
0.0
 11
153.650073
 21
10.343401
 31
0.0
  0
LINE
  5
F6
100
AcDbEntity
  8
ALS
 62
     0
100
AcDbLine
 10
153.090397
 20
10.075407
 30
0.0
 11
153.358391
 21
10.343401
 31
0.0
  0
LINE
  5
F7
100
AcDbEntity
  8
ALS
 62
     0
100
AcDbLine
 10
151.899791
 20
8.884801
 30
0.0
 11
152.843591
 21
9.828601
 31
0.0
  0
LINE
  5
F8
100
AcDbEntity
  8
ALS
 62
     0
100
AcDbLine
 10
151.637891
 20
8.914582
 30
0.0
 11
152.55191
 21
9.828601
 31
0.0
  0
LINE
  5
F9
100
AcDbEntity
  8
ALS
 62
     0
100
AcDbLine
 10
151.448679
 20
9.017052
 30
0.0
 11
152.260457
 21
9.82883
 31
0.0
  0
LINE
  5
FA
100
AcDbEntity
  8
ALS
 62
     0
100
AcDbLine
 10
151.312179
 20
9.172233
 30
0.0
 11
152.212656
 21
10.07271
 31
0.0
  0
LINE
  5
FB
100
AcDbEntity
  8
ALS
 62
     0
100
AcDbLine
 10
151.232629
 20
9.384365
 30
0.0
 11
152.29139
 21
10.443126
 31
0.0
  0
LINE
  5
FC
100
AcDbEntity
  8
ALS
100
AcDbLine
 10
153.85895
 20
9.564413
 30
0.0
 11
153.915105
 21
9.828601
 31
0.0
  0
LINE
  5
FD
100
AcDbEntity
  8
ALS
100
AcDbLine
 10
152.182798
 20
9.93224
 30
0.0
 11
152.332489
 21
10.636479
 31
0.0
  0
LINE
  5
FE
100
AcDbEntity
  8
ALS
100
AcDbLine
 10
153.052383
 20
9.896562
 30
0.0
 11
153.147361
 21
10.343401
 31
0.0
  0
LINE
  5
FF
100
AcDbEntity
  8
ALS
100
AcDbLine
 10
154.18242
 20
10.343401
 30
0.0
 11
153.147361
 21
10.343401
 31
0.0
  0
LINE
  5
100
100
AcDbEntity
  8
ALS
100
AcDbLine
 10
152.266723
 20
9.828601
 30
0.0
 11
152.968458
 21
9.828601
 31
0.0
  0
LINE
  5
101
100
AcDbEntity
  8
ALS
100
AcDbLine
 10
153.915105
 20
9.828601
 30
0.0
 11
154.072996
 21
9.828601
 31
0.0
  0
LINE
  5
102
100
AcDbEntity
  8
ALS
100
AcDbLine
 10
154.115716
 20
10.772401
 30
0.0
 11
152.500339
 21
10.772401
 31
0.0
  0
LINE
  5
103
100
AcDbEntity
  8
ALS
100
AcDbLine
 10
155.05991
 20
9.93224
 30
0.0
 11
155.224046
 21
10.70444
 31
0.0
  0
LINE
  5
104
100
AcDbEntity
  8
ALS
100
AcDbLine
 10
151.824669
 20
8.884801
 30
0.0
 11
153.0197
 21
8.884801
 31
0.0
  0
ARC
  5
105
100
AcDbEntity
  8
ALS
100
AcDbCircle
 10
154.614064
 20
9.485401
 30
0.0
 40
0.6006
100
AcDbArc
 50
168.0
 51
270.0
  0
ARC
  5
106
100
AcDbEntity
  8
ALS
100
AcDbCircle
 10
155.143835
 20
9.914401
 30
0.0
 40
0.0858
100
AcDbArc
 50
168.0
 51
270.0
  0
ARC
  5
107
100
AcDbEntity
  8
ALS
100
AcDbCircle
 10
153.0197
 20
9.742801
 30
0.0
 40
0.858
100
AcDbArc
 50
270.0
 51
348.0
  0
ARC
  5
108
100
AcDbEntity
  8
ALS
100
AcDbCircle
 10
152.266723
 20
9.914401
 30
0.0
 40
0.0858
100
AcDbArc
 50
168.0
 51
270.0
  0
ARC
  5
109
100
AcDbEntity
  8
ALS
100
AcDbCircle
 10
152.968458
 20
9.914401
 30
0.0
 40
0.0858
100
AcDbArc
 50
270.0
 51
348.0
  0
ARC
  5
10A
100
AcDbEntity
  8
ALS
100
AcDbCircle
 10
152.500339
 20
10.600801
 30
0.0
 40
0.1716
100
AcDbArc
 50
90.0
 51
168.0
  0
LINE
  5
10B
100
AcDbEntity
  8
ALS
 62
     0
100
AcDbLine
 10
151.024747
 20
8.884801
 30
0.0
 11
151.098712
 21
8.958766
 31
0.0
  0
LINE
  5
10C
100
AcDbEntity
  8
ALS
 62
     0
100
AcDbLine
 10
147.81833
 20
9.470244
 30
0.0
 11
148.176687
 21
9.828601
 31
0.0
  0
LINE
  5
10D
100
AcDbEntity
  8
ALS
 62
     0
100
AcDbLine
 10
147.739595
 20
9.099828
 30
0.0
 11
148.4782
 21
9.838433
 31
0.0
  0
LINE
  5
10E
100
AcDbEntity
  8
ALS
 62
     0
100
AcDbLine
 10
148.399613
 20
8.884802
 30
0.0
 11
149.638182
 21
10.123371
 31
0.0
  0
LINE
  5
10F
100
AcDbEntity
  8
ALS
 62
     0
100
AcDbLine
 10
148.781361
 20
8.974868
 30
0.0
 11
149.176553
 21
9.370059
 31
0.0
  0
LINE
  5
110
100
AcDbEntity
  8
ALS
 62
     0
100
AcDbLine
 10
149.660657
 20
9.562483
 30
0.0
 11
150.774602
 21
10.676427
 31
0.0
  0
LINE
  5
111
100
AcDbEntity
  8
ALS
 62
     0
100
AcDbLine
 10
149.61058
 20
9.220724
 30
0.0
 11
150.695867
 21
10.306011
 31
0.0
  0
LINE
  5
112
100
AcDbEntity
  8
ALS
 62
     0
100
AcDbLine
 10
149.700678
 20
9.01914
 30
0.0
 11
150.617133
 21
9.935595
 31
0.0
  0
LINE
  5
113
100
AcDbEntity
  8
ALS
 62
     0
100
AcDbLine
 10
149.87623
 20
8.903011
 30
0.0
 11
150.801821
 21
9.828601
 31
0.0
  0
LINE
  5
114
100
AcDbEntity
  8
ALS
 62
     0
100
AcDbLine
 10
150.149702
 20
8.884801
 30
0.0
 11
151.093502
 21
9.828601
 31
0.0
  0
LINE
  5
115
100
AcDbEntity
  8
ALS
100
AcDbLine
 10
147.69389
 20
8.884801
 30
0.0
 11
147.894501
 21
9.828601
 31
0.0
  0
LINE
  5
116
100
AcDbEntity
  8
ALS
100
AcDbLine
 10
149.130248
 20
9.294498
 30
0.0
 11
149.855128
 21
10.477393
 31
0.0
  0
LINE
  5
117
100
AcDbEntity
  8
ALS
100
AcDbLine
 10
149.855128
 20
10.477393
 30
0.0
 11
149.615743
 21
9.351176
 31
0.0
  0
LINE
  5
118
100
AcDbEntity
  8
ALS
100
AcDbLine
 10
149.993406
 20
8.884801
 30
0.0
 11
151.08299
 21
8.884801
 31
0.0
  0
LINE
  5
119
100
AcDbEntity
  8
ALS
100
AcDbLine
 10
147.894501
 20
9.828601
 30
0.0
 11
148.407739
 21
9.828601
 31
0.0
  0
LINE
  5
11A
100
AcDbEntity
  8
ALS
100
AcDbLine
 10
147.69389
 20
8.884801
 30
0.0
 11
148.398683
 21
8.884801
 31
0.0
  0
ARC
  5
11B
100
AcDbEntity
  8
ALS
100
AcDbCircle
 10
148.398683
 20
9.742801
 30
0.0
 40
0.858
100
AcDbArc
 50
270.0
 51
328.5
  0
ARC
  5
11C
100
AcDbEntity
  8
ALS
100
AcDbCircle
 10
148.407739
 20
10.086001
 30
0.0
 40
0.2574
100
AcDbArc
 50
270.0
 51
328.5
  0
ARC
  5
11D
100
AcDbEntity
  8
ALS
100
AcDbCircle
 10
150.700345
 20
9.914401
 30
0.0
 40
0.0858
100
AcDbArc
 50
168.0
 51
270.0
  0
ARC
  5
11E
100
AcDbEntity
  8
ALS
100
AcDbCircle
 10
149.993406
 20
9.270901
 30
0.0
 40
0.3861
100
AcDbArc
 50
168.0
 51
270.0
  0
LINE
  5
11F
100
AcDbEntity
  8
ALS
 62
     0
100
AcDbLine
 10
150.441384
 20
8.884801
 30
0.0
 11
151.25618
 21
9.699598
 31
0.0
  0
LINE
  5
120
100
AcDbEntity
  8
ALS
 62
     0
100
AcDbLine
 10
150.733065
 20
8.884801
 30
0.0
 11
151.177446
 21
9.329182
 31
0.0
  0
LINE
  5
121
100
AcDbEntity
  8
ALS
100
AcDbLine
 10
150.700345
 20
9.828601
 30
0.0
 11
151.283601
 21
9.828601
 31
0.0
  0
ARC
  5
122
100
AcDbEntity
  8
ALS
100
AcDbCircle
 10
151.824669
 20
9.485401
 30
0.0
 40
0.6006
100
AcDbArc
 50
168.0
 51
270.0
  0
LINE
  5
123
100
AcDbEntity
  8
ALS
100
AcDbLine
 10
151.283601
 20
9.828601
 30
0.0
 11
151.08299
 21
8.884801
 31
0.0
  0
LINE
  5
124
100
AcDbEntity
  8
ALS
 62
     0
100
AcDbLine
 10
153.787391
 20
10.772401
 30
0.0
 11
154.204342
 21
11.189352
 31
0.0
  0
LINE
  5
125
100
AcDbEntity
  8
ALS
 62
     0
100
AcDbLine
 10
153.49571
 20
10.772401
 30
0.0
 11
154.283076
 21
11.559768
 31
0.0
  0
LINE
  5
126
100
AcDbEntity
  8
ALS
 62
     0
100
AcDbLine
 10
153.204028
 20
10.772401
 30
0.0
 11
154.147828
 21
11.716201
 31
0.0
  0
LINE
  5
127
100
AcDbEntity
  8
ALS
 62
     0
100
AcDbLine
 10
152.912347
 20
10.772401
 30
0.0
 11
153.856147
 21
11.716201
 31
0.0
  0
LINE
  5
128
100
AcDbEntity
  8
ALS
 62
     4
100
AcDbLine
 10
149.145705
 20
10.79762
 30
0.0
 11
150.053501
 21
11.705416
 31
0.0
  0
LINE
  5
129
100
AcDbEntity
  8
ALS
 62
     0
100
AcDbLine
 10
148.684075
 20
10.044308
 30
0.0
 11
150.355968
 21
11.716201
 31
0.0
  0
LINE
  5
12A
100
AcDbEntity
  8
ALS
 62
     0
100
AcDbLine
 10
147.81625
 20
8.884801
 30
0.0
 11
150.64765
 21
11.716201
 31
0.0
  0
LINE
  5
12B
100
AcDbEntity
  8
ALS
 62
     0
100
AcDbLine
 10
148.107931
 20
8.884801
 30
0.0
 11
150.939331
 21
11.716201
 31
0.0
  0
LINE
  5
12C
100
AcDbEntity
  8
ALS
 62
     0
100
AcDbLine
 10
149.818126
 20
10.303314
 30
0.0
 11
150.93207
 21
11.417259
 31
0.0
  0
LINE
  5
12D
100
AcDbEntity
  8
ALS
 62
     0
100
AcDbLine
 10
149.739392
 20
9.932898
 30
0.0
 11
150.853336
 21
11.046843
 31
0.0
  0
LINE
  5
12E
100
AcDbEntity
  8
ALS
 62
     0
100
AcDbLine
 10
151.492383
 20
10.810845
 30
0.0
 11
152.397739
 21
11.716201
 31
0.0
  0
LINE
  5
12F
100
AcDbEntity
  8
ALS
 62
     0
100
AcDbLine
 10
151.413649
 20
10.440429
 30
0.0
 11
152.689421
 21
11.716201
 31
0.0
  0
LINE
  5
130
100
AcDbEntity
  8
ALS
 62
     0
100
AcDbLine
 10
151.334914
 20
10.070014
 30
0.0
 11
152.981102
 21
11.716201
 31
0.0
  0
LINE
  5
131
100
AcDbEntity
  8
ALS
 62
     0
100
AcDbLine
 10
151.25618
 20
9.699598
 30
0.0
 11
153.272784
 21
11.716201
 31
0.0
  0
LINE
  5
132
100
AcDbEntity
  8
ALS
 62
     0
100
AcDbLine
 10
152.620665
 20
10.772401
 30
0.0
 11
153.564465
 21
11.716201
 31
0.0
  0
LINE
  5
133
100
AcDbEntity
  8
ALS
100
AcDbLine
 10
151.237194
 20
9.610273
 30
0.0
 11
151.540367
 21
11.03659
 31
0.0
  0
LINE
  5
134
100
AcDbEntity
  8
ALS
100
AcDbLine
 10
150.995613
 20
11.716201
 30
0.0
 11
150.61642
 21
9.93224
 31
0.0
  0
LINE
  5
135
100
AcDbEntity
  8
ALS
100
AcDbLine
 10
154.026589
 20
9.610273
 30
0.0
 11
154.329762
 21
11.03659
 31
0.0
  0
LINE
  5
136
100
AcDbEntity
  8
ALS
100
AcDbLine
 10
154.115716
 20
10.772401
 30
0.0
 11
154.316327
 21
11.716201
 31
0.0
  0
LINE
  5
137
100
AcDbEntity
  8
ALS
100
AcDbLine
 10
148.627208
 20
9.95151
 30
0.0
 11
149.45755
 21
11.306505
 31
0.0
  0
LINE
  5
138
100
AcDbEntity
  8
ALS
 62
     0
100
AcDbLine
 10
155.108288
 20
8.884801
 30
0.0
 11
156.052088
 21
9.828601
 31
0.0
  0
LINE
  5
139
100
AcDbEntity
  8
ALS
 62
     0
100
AcDbLine
 10
154.816607
 20
8.884801
 30
0.0
 11
155.760407
 21
9.828601
 31
0.0
  0
LINE
  5
13A
100
AcDbEntity
  8
ALS
 62
     0
100
AcDbLine
 10
154.530734
 20
8.89061
 30
0.0
 11
155.468725
 21
9.828601
 31
0.0
  0
LINE
  5
13B
100
AcDbEntity
  8
ALS
 62
     0
100
AcDbLine
 10
154.016215
 20
9.542817
 30
0.0
 11
156.189599
 21
11.716201
 31
0.0
  0
LINE
  5
13C
100
AcDbEntity
  8
ALS
 62
     0
100
AcDbLine
 10
154.089915
 20
9.908198
 30
0.0
 11
155.897918
 21
11.716201
 31
0.0
  0
LINE
  5
13D
100
AcDbEntity
  8
ALS
 62
     0
100
AcDbLine
 10
152.774836
 20
8.884801
 30
0.0
 11
155.606236
 21
11.716201
 31
0.0
  0
LINE
  5
13E
100
AcDbEntity
  8
ALS
 62
     0
100
AcDbLine
 10
154.247383
 20
10.64903
 30
0.0
 11
155.314555
 21
11.716201
 31
0.0
  0
LINE
  5
13F
100
AcDbEntity
  8
ALS
100
AcDbLine
 10
156.930288
 20
11.716201
 30
0.0
 11
155.169012
 21
11.716201
 31
0.0
  0
LINE
  5
140
100
AcDbEntity
  8
ALS
100
AcDbLine
 10
155.143835
 20
9.828601
 30
0.0
 11
156.529067
 21
9.828601
 31
0.0
  0
LINE
  5
141
100
AcDbEntity
  8
ALS
100
AcDbLine
 10
154.614064
 20
8.884801
 30
0.0
 11
156.328456
 21
8.884801
 31
0.0
  0
ARC
  5
142
100
AcDbEntity
  8
ALS
100
AcDbCircle
 10
155.307971
 20
10.686601
 30
0.0
 40
0.0858
100
AcDbArc
 50
90.0
 51
168.0
  0
LINE
  5
143
100
AcDbEntity
  8
WAKU
 62
     3
100
AcDbLine
 10
146.0
 20
0.0
 30
0.0
 11
146.0
 21
16.0
 31
0.0
  0
TEXT
  5
144
100
AcDbEntity
  8
WAKU
 62
     3
100
AcDbText
 10
158.053592
 20
9.038447
 30
0.0
 40
2.64
  1
旭硝子株式会社
 72
     1
 11
168.789592
 21
9.038447
 31
0.0
100
AcDbText
  0
TEXT
  5
145
100
AcDbEntity
  8
WAKU
 62
     4
100
AcDbText
 10
149.024877
 20
4.486101
 30
0.0
 40
1.65
  1
東京都墨田区錦糸1丁目2番1号（アルカセントラル15階）
 72
     1
 11
175.008448
 21
4.486101
 31
0.0
100
AcDbText
  0
LINE
  5
146
100
AcDbEntity
  8
WAKU
 62
     1
100
AcDbLine
 10
0.0
 20
12.8
 30
0.0
 11
146.0
 21
12.8
 31
0.0
  0
LINE
  5
147
100
AcDbEntity
  8
WAKU
 62
     1
100
AcDbLine
 10
0.0
 20
9.6
 30
0.0
 11
146.0
 21
9.6
 31
0.0
  0
LINE
  5
148
100
AcDbEntity
  8
WAKU
 62
     1
100
AcDbLine
 10
0.0
 20
6.4
 30
0.0
 11
146.0
 21
6.4
 31
0.0
  0
LINE
  5
149
100
AcDbEntity
  8
WAKU
 62
     1
100
AcDbLine
 10
0.0
 20
3.2
 30
0.0
 11
146.0
 21
3.2
 31
0.0
  0
LINE
  5
14A
100
AcDbEntity
  8
WAKU
100
AcDbLine
 10
0.0
 20
0.0
 30
0.0
 11
0.0
 21
275.0
 31
0.0
  0
LINE
  5
14B
100
AcDbEntity
  8
WAKU
100
AcDbLine
 10
395.0
 20
275.0
 30
0.0
 11
0.0
 21
275.0
 31
0.0
  0
LINE
  5
14C
100
AcDbEntity
  8
WAKU
100
AcDbLine
 10
0.0
 20
0.0
 30
0.0
 11
395.0
 21
0.0
 31
0.0
  0
LINE
  5
14D
100
AcDbEntity
  8
WAKU
100
AcDbLine
 10
0.0
 20
16.0
 30
0.0
 11
395.0
 21
16.0
 31
0.0
  0
LINE
  5
14E
100
AcDbEntity
  8
WAKU
 62
     1
100
AcDbLine
 10
204.5
 20
8.0
 30
0.0
 11
384.0
 21
8.0
 31
0.0
  0
ARC
  5
14F
100
AcDbEntity
  8
1BIS
100
AcDbCircle
 10
37.434729
 20
172.361202
 30
0.0
 40
4.052761
100
AcDbArc
 50
136.749168
 51
229.934011
  0
ARC
  5
151
100
AcDbEntity
  8
1BIS
100
AcDbCircle
 10
31.249287
 20
178.180054
 30
0.0
 40
4.439515
100
AcDbArc
 50
316.749168
 51
52.873241
  0
LINE
  5
152
100
AcDbEntity
  8
1AL
100
AcDbLine
 10
103.377306
 20
171.295275
 30
0.0
 11
104.377306
 21
171.295275
 31
0.0
  0
LINE
  5
154
100
AcDbEntity
  8
1AL
100
AcDbLine
 10
103.377306
 20
171.295275
 30
0.0
 11
103.377306
 21
168.795275
 31
0.0
  0
LINE
  5
155
100
AcDbEntity
  8
1AL
100
AcDbLine
 10
104.877306
 20
169.795275
 30
0.0
 11
105.877306
 21
169.795275
 31
0.0
  0
LINE
  5
156
100
AcDbEntity
  8
1AL
100
AcDbLine
 10
104.877306
 20
170.795275
 30
0.0
 11
104.877306
 21
169.795275
 31
0.0
  0
ARC
  5
157
100
AcDbEntity
  8
1AL
100
AcDbCircle
 10
104.377306
 20
170.795275
 30
0.0
 40
0.5
100
AcDbArc
 50
360.0
 51
90.0
  0
LINE
  5
158
100
AcDbEntity
  8
1AL
100
AcDbLine
 10
103.377306
 20
168.795275
 30
0.0
 11
104.877306
 21
167.295275
 31
0.0
  0
LINE
  5
159
100
AcDbEntity
  8
1AL
100
AcDbLine
 10
104.877306
 20
158.045275
 30
0.0
 11
103.877306
 21
158.045275
 31
0.0
  0
LINE
  5
15A
100
AcDbEntity
  8
1AL
100
AcDbLine
 10
104.877306
 20
153.795275
 30
0.0
 11
105.877306
 21
153.795275
 31
0.0
  0
LINE
  5
15B
100
AcDbEntity
  8
1AL
100
AcDbLine
 10
104.877306
 20
155.295275
 30
0.0
 11
105.877306
 21
155.295275
 31
0.0
  0
LINE
  5
15C
100
AcDbEntity
  8
1AL
100
AcDbLine
 10
104.877306
 20
155.295275
 30
0.0
 11
104.877306
 21
153.795275
 31
0.0
  0
LINE
  5
15D
100
AcDbEntity
  8
1AL
100
AcDbLine
 10
104.877306
 20
152.045275
 30
0.0
 11
103.877306
 21
152.045275
 31
0.0
  0
LINE
  5
15E
100
AcDbEntity
  8
1AL
100
AcDbLine
 10
103.877306
 20
158.045275
 30
0.0
 11
103.877306
 21
152.045275
 31
0.0
  0
LINE
  5
15F
100
AcDbEntity
  8
1AL
100
AcDbLine
 10
105.877306
 20
169.795275
 30
0.0
 11
105.877306
 21
155.295275
 31
0.0
  0
LINE
  5
160
100
AcDbEntity
  8
1AL
100
AcDbLine
 10
104.877306
 20
167.295275
 30
0.0
 11
104.877306
 21
158.045275
 31
0.0
  0
LINE
  5
161
100
AcDbEntity
  8
1AL
100
AcDbLine
 10
104.877306
 20
140.795275
 30
0.0
 11
103.877306
 21
140.795275
 31
0.0
  0
LINE
  5
162
100
AcDbEntity
  8
1AL
100
AcDbLine
 10
101.877306
 20
135.795275
 30
0.0
 11
101.877306
 21
137.295275
 31
0.0
  0
LINE
  5
163
100
AcDbEntity
  8
1AL
100
AcDbLine
 10
102.877306
 20
137.795275
 30
0.0
 11
102.877306
 21
136.795275
 31
0.0
  0
LINE
  5
164
100
AcDbEntity
  8
1AL
100
AcDbLine
 10
103.877306
 20
136.795275
 30
0.0
 11
102.877306
 21
136.795275
 31
0.0
  0
LINE
  5
165
100
AcDbEntity
  8
1AL
100
AcDbLine
 10
102.877306
 20
137.795275
 30
0.0
 11
102.377306
 21
137.795275
 31
0.0
  0
ARC
  5
166
100
AcDbEntity
  8
1AL
100
AcDbCircle
 10
102.377306
 20
137.295275
 30
0.0
 40
0.5
100
AcDbArc
 50
90.0
 51
180.0
  0
LINE
  5
167
100
AcDbEntity
  8
1AL
100
AcDbLine
 10
104.877306
 20
139.295275
 30
0.0
 11
104.877306
 21
137.795275
 31
0.0
  0
LINE
  5
168
100
AcDbEntity
  8
1AL
100
AcDbLine
 10
105.877306
 20
137.795275
 30
0.0
 11
104.877306
 21
137.795275
 31
0.0
  0
LINE
  5
169
100
AcDbEntity
  8
1AL
100
AcDbLine
 10
105.877306
 20
139.295275
 30
0.0
 11
104.877306
 21
139.295275
 31
0.0
  0
LINE
  5
16A
100
AcDbEntity
  8
1AL
100
AcDbLine
 10
105.877306
 20
137.795275
 30
0.0
 11
105.877306
 21
135.795275
 31
0.0
  0
LINE
  5
16B
100
AcDbEntity
  8
1AL
100
AcDbLine
 10
105.877306
 20
135.795275
 30
0.0
 11
101.877306
 21
135.795275
 31
0.0
  0
LINE
  5
16C
100
AcDbEntity
  8
1AL
100
AcDbLine
 10
103.877306
 20
140.795275
 30
0.0
 11
103.877306
 21
136.795275
 31
0.0
  0
LINE
  5
16D
100
AcDbEntity
  8
1AL
100
AcDbLine
 10
104.877306
 20
152.045275
 30
0.0
 11
104.877306
 21
140.795275
 31
0.0
  0
LINE
  5
16E
100
AcDbEntity
  8
1AL
100
AcDbLine
 10
105.877306
 20
153.795275
 30
0.0
 11
105.877306
 21
139.295275
 31
0.0
  0
LINE
  5
16F
100
AcDbEntity
  8
1AL
100
AcDbLine
 10
104.877306
 20
154.895275
 30
0.0
 11
106.377306
 21
154.895275
 31
0.0
  0
LINE
  5
170
100
AcDbEntity
  8
1AL
100
AcDbLine
 10
106.877306
 20
155.395275
 30
0.0
 11
106.877306
 21
166.395275
 31
0.0
  0
ARC
  5
171
100
AcDbEntity
  8
1AL
100
AcDbCircle
 10
106.877306
 20
167.095275
 30
0.0
 40
0.7
100
AcDbArc
 50
90.0
 51
270.0
  0
ARC
  5
172
100
AcDbEntity
  8
1AL
100
AcDbCircle
 10
108.377306
 20
166.295275
 30
0.0
 40
0.5
100
AcDbArc
 50
90.0
 51
180.0
  0
LINE
  5
173
100
AcDbEntity
  8
1AL
100
AcDbLine
 10
110.877306
 20
171.795275
 30
0.0
 11
110.877306
 21
173.188872
 31
0.0
  0
ARC
  5
174
100
AcDbEntity
  8
1AL
100
AcDbCircle
 10
118.877306
 20
172.40777
 30
0.0
 40
1.0
100
AcDbArc
 50
360.0
 51
77.364375
  0
LINE
  5
175
100
AcDbEntity
  8
1AL
100
AcDbLine
 10
118.877306
 20
168.295275
 30
0.0
 11
118.877306
 21
171.295275
 31
0.0
  0
ARC
  5
176
100
AcDbEntity
  8
1AL
100
AcDbCircle
 10
118.377306
 20
171.295275
 30
0.0
 40
0.5
100
AcDbArc
 50
360.0
 51
90.0
  0
ARC
  5
177
100
AcDbEntity
  8
1AL
100
AcDbCircle
 10
118.377306
 20
168.295275
 30
0.0
 40
0.5
100
AcDbArc
 50
270.0
 51
360.0
  0
ARC
  5
178
100
AcDbEntity
  8
1AL
100
AcDbCircle
 10
118.877306
 20
167.795275
 30
0.0
 40
1.0
100
AcDbArc
 50
270.0
 51
360.0
  0
LINE
  5
179
100
AcDbEntity
  8
1AL
100
AcDbLine
 10
119.877306
 20
167.795275
 30
0.0
 11
119.877306
 21
172.40777
 31
0.0
  0
LINE
  5
17A
100
AcDbEntity
  8
1AL
100
AcDbLine
 10
118.377306
 20
171.795275
 30
0.0
 11
110.877306
 21
171.795275
 31
0.0
  0
ARC
  5
17B
100
AcDbEntity
  8
1AL
100
AcDbCircle
 10
115.377306
 20
156.795275
 30
0.0
 40
17.0
100
AcDbArc
 50
77.364375
 51
105.349477
  0
LINE
  5
17C
100
AcDbEntity
  8
1AL
100
AcDbLine
 10
118.877306
 20
166.795275
 30
0.0
 11
108.377306
 21
166.795275
 31
0.0
  0
LINE
  5
17D
100
AcDbEntity
  8
1AL
100
AcDbLine
 10
118.377306
 20
167.795275
 30
0.0
 11
106.877306
 21
167.795275
 31
0.0
  0
ARC
  5
17E
100
AcDbEntity
  8
1AL
100
AcDbCircle
 10
106.877306
 20
154.795275
 30
0.0
 40
1.0
100
AcDbArc
 50
270.0
 51
360.0
  0
LINE
  5
17F
100
AcDbEntity
  8
1AL
100
AcDbLine
 10
104.877306
 20
153.795275
 30
0.0
 11
106.877306
 21
153.795275
 31
0.0
  0
LINE
  5
180
100
AcDbEntity
  8
1AL
100
AcDbLine
 10
104.877306
 20
154.895275
 30
0.0
 11
104.877306
 21
153.795275
 31
0.0
  0
LINE
  5
181
100
AcDbEntity
  8
1AL
100
AcDbLine
 10
107.877306
 20
154.795275
 30
0.0
 11
107.877306
 21
166.295275
 31
0.0
  0
ARC
  5
182
100
AcDbEntity
  8
1AL
100
AcDbCircle
 10
106.377306
 20
155.395275
 30
0.0
 40
0.5
100
AcDbArc
 50
270.0
 51
360.0
  0
LINE
  5
183
100
AcDbEntity
  8
1GASKET
100
AcDbLine
 10
83.877306
 20
177.295275
 30
0.0
 11
83.877306
 21
170.795275
 31
0.0
  0
ARC
  5
185
100
AcDbEntity
  8
1GASKET
100
AcDbCircle
 10
82.402496
 20
186.625885
 30
0.0
 40
9.446446
100
AcDbArc
 50
226.310006
 51
278.981945
  0
LINE
  5
186
100
AcDbEntity
  8
1GASKET
100
AcDbLine
 10
75.877306
 20
170.795275
 30
0.0
 11
75.877306
 21
179.795275
 31
0.0
  0
LINE
  5
187
100
AcDbEntity
  8
1GASKET
100
AcDbLine
 10
83.877306
 20
170.795275
 30
0.0
 11
75.877306
 21
170.795275
 31
0.0
  0
POINT
  5
188
100
AcDbEntity
  8
DEFPOINTS
 62
     0
100
AcDbPoint
 10
98.377306
 20
65.427568
 30
0.0
  0
POINT
  5
18C
100
AcDbEntity
  8
DEFPOINTS
 62
     0
100
AcDbPoint
 10
98.377306
 20
135.795275
 30
0.0
  0
POINT
  5
18D
100
AcDbEntity
  8
DEFPOINTS
 62
     0
100
AcDbPoint
 10
105.877306
 20
135.795275
 30
0.0
  0
LINE
  5
18E
100
AcDbEntity
  8
ALS
 62
     0
100
AcDbLine
 10
104.877306
 20
65.427568
 30
0.0
 11
99.377306
 21
65.427568
 31
0.0
1001
ACAD
1000
RTLwPs
1070
   158
  0
LINE
  5
18F
100
AcDbEntity
  8
ALS
 62
     0
100
AcDbLine
 10
98.377306
 20
133.795275
 30
0.0
 11
98.377306
 21
64.227568
 31
0.0
1001
ACAD
1000
RTLwPs
1070
   158
  0
LINE
  5
190
100
AcDbEntity
  8
ALS
 62
     0
100
AcDbLine
 10
105.877306
 20
133.795275
 30
0.0
 11
105.877306
 21
64.227568
 31
0.0
1001
ACAD
1000
RTLwPs
1070
   158
  0
POINT
  5
191
100
AcDbEntity
  8
DEFPOINTS
 62
     0
100
AcDbPoint
 10
95.877306
 20
57.427568
 30
0.0
  0
POINT
  5
192
100
AcDbEntity
  8
DEFPOINTS
 62
     0
100
AcDbPoint
 10
95.877306
 20
57.221406
 30
0.0
  0
POINT
  5
193
100
AcDbEntity
  8
DEFPOINTS
 62
     0
100
AcDbPoint
 10
98.377306
 20
135.795275
 30
0.0
  0
LINE
  5
194
100
AcDbEntity
  8
ALS
 62
     0
100
AcDbLine
 10
98.377306
 20
57.427568
 30
0.0
 11
95.877306
 21
57.427568
 31
0.0
  0
LINE
  5
195
100
AcDbEntity
  8
ALS
 62
     0
100
AcDbLine
 10
94.877306
 20
57.427568
 30
0.0
 11
85.591591
 21
57.427568
 31
0.0
  0
LINE
  5
196
100
AcDbEntity
  8
ALS
 62
     0
100
AcDbLine
 10
99.377306
 20
57.427568
 30
0.0
 11
100.377306
 21
57.427568
 31
0.0
  0
LINE
  5
197
100
AcDbEntity
  8
ALS
 62
     0
100
AcDbLine
 10
95.877306
 20
59.221406
 30
0.0
 11
95.877306
 21
58.627568
 31
0.0
  0
LINE
  5
198
100
AcDbEntity
  8
ALS
 62
     0
100
AcDbLine
 10
98.377306
 20
133.795275
 30
0.0
 11
98.377306
 21
56.227568
 31
0.0
  0
POINT
  5
199
100
AcDbEntity
  8
DEFPOINTS
 62
     0
100
AcDbPoint
 10
321.958862
 20
65.427568
 30
0.0
  0
POINT
  5
19A
100
AcDbEntity
  8
DEFPOINTS
 62
     0
100
AcDbPoint
 10
321.958862
 20
135.795275
 30
0.0
  0
POINT
  5
19B
100
AcDbEntity
  8
DEFPOINTS
 62
     0
100
AcDbPoint
 10
314.458862
 20
135.795275
 30
0.0
  0
LINE
  5
19C
100
AcDbEntity
  8
ALS
 62
     0
100
AcDbLine
 10
315.458862
 20
65.427568
 30
0.0
 11
320.958862
 21
65.427568
 31
0.0
1001
ACAD
1000
RTLwPs
1070
   158
  0
LINE
  5
19D
100
AcDbEntity
  8
ALS
 62
     0
100
AcDbLine
 10
321.958862
 20
133.795275
 30
0.0
 11
321.958862
 21
64.227568
 31
0.0
1001
ACAD
1000
RTLwPs
1070
   158
  0
LINE
  5
19E
100
AcDbEntity
  8
ALS
 62
     0
100
AcDbLine
 10
314.458862
 20
133.795275
 30
0.0
 11
314.458862
 21
64.227568
 31
0.0
1001
ACAD
1000
RTLwPs
1070
   158
  0
POINT
  5
19F
100
AcDbEntity
  8
DEFPOINTS
 62
     0
100
AcDbPoint
 10
324.458862
 20
57.427568
 30
0.0
  0
POINT
  5
1A0
100
AcDbEntity
  8
DEFPOINTS
 62
     0
100
AcDbPoint
 10
324.458862
 20
57.221406
 30
0.0
  0
POINT
  5
1A1
100
AcDbEntity
  8
DEFPOINTS
 62
     0
100
AcDbPoint
 10
321.958862
 20
135.795275
 30
0.0
  0
LINE
  5
1A2
100
AcDbEntity
  8
ALS
 62
     0
100
AcDbLine
 10
321.958862
 20
57.427568
 30
0.0
 11
324.458862
 21
57.427568
 31
0.0
  0
LINE
  5
1A3
100
AcDbEntity
  8
ALS
 62
     0
100
AcDbLine
 10
325.458862
 20
57.427568
 30
0.0
 11
334.744576
 21
57.427568
 31
0.0
  0
LINE
  5
1A4
100
AcDbEntity
  8
ALS
 62
     0
100
AcDbLine
 10
320.958862
 20
57.427568
 30
0.0
 11
319.958862
 21
57.427568
 31
0.0
  0
LINE
  5
1A5
100
AcDbEntity
  8
ALS
 62
     0
100
AcDbLine
 10
324.458862
 20
59.221406
 30
0.0
 11
324.458862
 21
58.627568
 31
0.0
  0
LINE
  5
1A6
100
AcDbEntity
  8
ALS
 62
     0
100
AcDbLine
 10
321.958862
 20
133.795275
 30
0.0
 11
321.958862
 21
56.227568
 31
0.0
  0
ARC
  5
1A7
100
AcDbEntity
  8
1BIS
100
AcDbCircle
 10
382.901438
 20
172.361202
 30
0.0
 40
4.052761
100
AcDbArc
 50
310.065989
 51
43.250832
  0
ARC
  5
1A8
100
AcDbEntity
  8
1BIS
100
AcDbCircle
 10
389.08688
 20
178.180054
 30
0.0
 40
4.439515
100
AcDbArc
 50
112.911503
 51
223.250832
  0
LINE
  5
1A9
100
AcDbEntity
  8
1GASKET
100
AcDbLine
 10
336.458862
 20
177.295275
 30
0.0
 11
336.458862
 21
170.795275
 31
0.0
  0
ARC
  5
1AA
100
AcDbEntity
  8
1GASKET
100
AcDbCircle
 10
337.933671
 20
186.625885
 30
0.0
 40
9.446446
100
AcDbArc
 50
261.018055
 51
313.689994
  0
LINE
  5
1AB
100
AcDbEntity
  8
1GASKET
100
AcDbLine
 10
344.458862
 20
170.795275
 30
0.0
 11
344.458862
 21
179.795275
 31
0.0
  0
LINE
  5
1AC
100
AcDbEntity
  8
1GASKET
100
AcDbLine
 10
336.458862
 20
170.795275
 30
0.0
 11
344.458862
 21
170.795275
 31
0.0
  0
LINE
  5
1AD
100
AcDbEntity
  8
1AL
100
AcDbLine
 10
315.458862
 20
154.895275
 30
0.0
 11
313.958862
 21
154.895275
 31
0.0
  0
LINE
  5
1AE
100
AcDbEntity
  8
1AL
100
AcDbLine
 10
313.458862
 20
155.395275
 30
0.0
 11
313.458862
 21
166.395275
 31
0.0
  0
ARC
  5
1AF
100
AcDbEntity
  8
1AL
100
AcDbCircle
 10
313.458862
 20
167.095275
 30
0.0
 40
0.7
100
AcDbArc
 50
270.0
 51
90.0
  0
ARC
  5
1B0
100
AcDbEntity
  8
1AL
100
AcDbCircle
 10
311.958862
 20
166.295275
 30
0.0
 40
0.5
100
AcDbArc
 50
0.0
 51
90.0
  0
LINE
  5
1B1
100
AcDbEntity
  8
1AL
100
AcDbLine
 10
309.458862
 20
171.795275
 30
0.0
 11
309.458862
 21
173.188872
 31
0.0
  0
ARC
  5
1B2
100
AcDbEntity
  8
1AL
100
AcDbCircle
 10
301.458862
 20
172.40777
 30
0.0
 40
1.0
100
AcDbArc
 50
102.635625
 51
180.0
  0
LINE
  5
1B3
100
AcDbEntity
  8
1AL
100
AcDbLine
 10
301.458862
 20
168.295275
 30
0.0
 11
301.458862
 21
171.295275
 31
0.0
  0
ARC
  5
1B4
100
AcDbEntity
  8
1AL
100
AcDbCircle
 10
301.958862
 20
171.295275
 30
0.0
 40
0.5
100
AcDbArc
 50
90.0
 51
180.0
  0
ARC
  5
1B5
100
AcDbEntity
  8
1AL
100
AcDbCircle
 10
301.958862
 20
168.295275
 30
0.0
 40
0.5
100
AcDbArc
 50
180.0
 51
270.0
  0
ARC
  5
1B6
100
AcDbEntity
  8
1AL
100
AcDbCircle
 10
301.458862
 20
167.795275
 30
0.0
 40
1.0
100
AcDbArc
 50
180.0
 51
270.0
  0
LINE
  5
1B7
100
AcDbEntity
  8
1AL
100
AcDbLine
 10
300.458862
 20
167.795275
 30
0.0
 11
300.458862
 21
172.40777
 31
0.0
  0
LINE
  5
1B8
100
AcDbEntity
  8
1AL
100
AcDbLine
 10
301.958862
 20
171.795275
 30
0.0
 11
309.458862
 21
171.795275
 31
0.0
  0
ARC
  5
1B9
100
AcDbEntity
  8
1AL
100
AcDbCircle
 10
304.958862
 20
156.795275
 30
0.0
 40
17.0
100
AcDbArc
 50
74.650523
 51
102.635625
  0
LINE
  5
1BA
100
AcDbEntity
  8
1AL
100
AcDbLine
 10
301.458862
 20
166.795275
 30
0.0
 11
311.958862
 21
166.795275
 31
0.0
  0
LINE
  5
1BB
100
AcDbEntity
  8
1AL
100
AcDbLine
 10
301.958862
 20
167.795275
 30
0.0
 11
313.458862
 21
167.795275
 31
0.0
  0
ARC
  5
1BC
100
AcDbEntity
  8
1AL
100
AcDbCircle
 10
313.458862
 20
154.795275
 30
0.0
 40
1.0
100
AcDbArc
 50
180.0
 51
270.0
  0
LINE
  5
1BD
100
AcDbEntity
  8
1AL
100
AcDbLine
 10
315.458862
 20
153.795275
 30
0.0
 11
313.458862
 21
153.795275
 31
0.0
  0
LINE
  5
1BE
100
AcDbEntity
  8
1AL
100
AcDbLine
 10
315.458862
 20
154.895275
 30
0.0
 11
315.458862
 21
153.795275
 31
0.0
  0
LINE
  5
1BF
100
AcDbEntity
  8
1AL
100
AcDbLine
 10
312.458862
 20
154.795275
 30
0.0
 11
312.458862
 21
166.295275
 31
0.0
  0
ARC
  5
1C0
100
AcDbEntity
  8
1AL
100
AcDbCircle
 10
313.958862
 20
155.395275
 30
0.0
 40
0.5
100
AcDbArc
 50
180.0
 51
270.0
  0
LINE
  5
1C1
100
AcDbEntity
  8
1AL
100
AcDbLine
 10
316.958862
 20
171.295275
 30
0.0
 11
315.958862
 21
171.295275
 31
0.0
  0
LINE
  5
1C2
100
AcDbEntity
  8
1AL
100
AcDbLine
 10
316.958862
 20
171.295275
 30
0.0
 11
316.958862
 21
168.795275
 31
0.0
  0
LINE
  5
1C3
100
AcDbEntity
  8
1AL
100
AcDbLine
 10
315.458862
 20
169.795275
 30
0.0
 11
314.458862
 21
169.795275
 31
0.0
  0
LINE
  5
1C4
100
AcDbEntity
  8
1AL
100
AcDbLine
 10
315.458862
 20
170.795275
 30
0.0
 11
315.458862
 21
169.795275
 31
0.0
  0
ARC
  5
1C5
100
AcDbEntity
  8
1AL
100
AcDbCircle
 10
315.958862
 20
170.795275
 30
0.0
 40
0.5
100
AcDbArc
 50
90.0
 51
180.0
  0
LINE
  5
1C6
100
AcDbEntity
  8
1AL
100
AcDbLine
 10
316.958862
 20
168.795275
 30
0.0
 11
315.458862
 21
167.295275
 31
0.0
  0
LINE
  5
1C7
100
AcDbEntity
  8
1AL
100
AcDbLine
 10
315.458862
 20
158.045275
 30
0.0
 11
316.458862
 21
158.045275
 31
0.0
  0
LINE
  5
1C8
100
AcDbEntity
  8
1AL
100
AcDbLine
 10
315.458862
 20
153.795275
 30
0.0
 11
314.458862
 21
153.795275
 31
0.0
  0
LINE
  5
1C9
100
AcDbEntity
  8
1AL
100
AcDbLine
 10
315.458862
 20
155.295275
 30
0.0
 11
314.458862
 21
155.295275
 31
0.0
  0
LINE
  5
1CA
100
AcDbEntity
  8
1AL
100
AcDbLine
 10
315.458862
 20
155.295275
 30
0.0
 11
315.458862
 21
153.795275
 31
0.0
  0
LINE
  5
1CB
100
AcDbEntity
  8
1AL
100
AcDbLine
 10
315.458862
 20
152.045275
 30
0.0
 11
316.458862
 21
152.045275
 31
0.0
  0
LINE
  5
1CC
100
AcDbEntity
  8
1AL
100
AcDbLine
 10
316.458862
 20
158.045275
 30
0.0
 11
316.458862
 21
152.045275
 31
0.0
  0
LINE
  5
1CD
100
AcDbEntity
  8
1AL
100
AcDbLine
 10
314.458862
 20
169.795275
 30
0.0
 11
314.458862
 21
155.295275
 31
0.0
  0
LINE
  5
1CE
100
AcDbEntity
  8
1AL
100
AcDbLine
 10
315.458862
 20
167.295275
 30
0.0
 11
315.458862
 21
158.045275
 31
0.0
  0
LINE
  5
1CF
100
AcDbEntity
  8
1AL
100
AcDbLine
 10
315.458862
 20
140.795275
 30
0.0
 11
316.458862
 21
140.795275
 31
0.0
  0
LINE
  5
1D0
100
AcDbEntity
  8
1AL
100
AcDbLine
 10
318.458862
 20
135.795275
 30
0.0
 11
318.458862
 21
137.295275
 31
0.0
  0
LINE
  5
1D1
100
AcDbEntity
  8
1AL
100
AcDbLine
 10
317.458862
 20
137.795275
 30
0.0
 11
317.458862
 21
136.795275
 31
0.0
  0
LINE
  5
1D2
100
AcDbEntity
  8
1AL
100
AcDbLine
 10
316.458862
 20
136.795275
 30
0.0
 11
317.458862
 21
136.795275
 31
0.0
  0
LINE
  5
1D3
100
AcDbEntity
  8
1AL
100
AcDbLine
 10
317.458862
 20
137.795275
 30
0.0
 11
317.958862
 21
137.795275
 31
0.0
  0
ARC
  5
1D4
100
AcDbEntity
  8
1AL
100
AcDbCircle
 10
317.958862
 20
137.295275
 30
0.0
 40
0.5
100
AcDbArc
 50
0.0
 51
90.0
  0
LINE
  5
1D5
100
AcDbEntity
  8
1AL
100
AcDbLine
 10
315.458862
 20
139.295275
 30
0.0
 11
315.458862
 21
137.795275
 31
0.0
  0
LINE
  5
1D6
100
AcDbEntity
  8
1AL
100
AcDbLine
 10
314.458862
 20
137.795275
 30
0.0
 11
315.458862
 21
137.795275
 31
0.0
  0
LINE
  5
1D7
100
AcDbEntity
  8
1AL
100
AcDbLine
 10
314.458862
 20
139.295275
 30
0.0
 11
315.458862
 21
139.295275
 31
0.0
  0
LINE
  5
1D8
100
AcDbEntity
  8
1AL
100
AcDbLine
 10
314.458862
 20
137.795275
 30
0.0
 11
314.458862
 21
135.795275
 31
0.0
  0
LINE
  5
1D9
100
AcDbEntity
  8
1AL
100
AcDbLine
 10
314.458862
 20
135.795275
 30
0.0
 11
318.458862
 21
135.795275
 31
0.0
  0
LINE
  5
1DA
100
AcDbEntity
  8
1AL
100
AcDbLine
 10
316.458862
 20
140.795275
 30
0.0
 11
316.458862
 21
136.795275
 31
0.0
  0
LINE
  5
1DB
100
AcDbEntity
  8
1AL
100
AcDbLine
 10
315.458862
 20
152.045275
 30
0.0
 11
315.458862
 21
140.795275
 31
0.0
  0
LINE
  5
1DC
100
AcDbEntity
  8
1AL
100
AcDbLine
 10
314.458862
 20
153.795275
 30
0.0
 11
314.458862
 21
139.295275
 31
0.0
  0
POINT
  5
1DD
100
AcDbEntity
  8
DEFPOINTS
 62
     0
100
AcDbPoint
 10
321.958862
 20
57.427568
 30
0.0
  0
POINT
  5
1DE
100
AcDbEntity
  8
DEFPOINTS
 62
     0
100
AcDbPoint
 10
321.958862
 20
135.795275
 30
0.0
  0
POINT
  5
1DF
100
AcDbEntity
  8
DEFPOINTS
 62
     0
100
AcDbPoint
 10
98.377306
 20
135.795275
 30
0.0
  0
LINE
  5
1E0
100
AcDbEntity
  8
ALS
 62
     0
100
AcDbLine
 10
99.377306
 20
57.427568
 30
0.0
 11
320.958862
 21
57.427568
 31
0.0
1001
ACAD
1000
RTLwPs
1070
   158
  0
LINE
  5
1E1
100
AcDbEntity
  8
ALS
 62
     0
100
AcDbLine
 10
321.958862
 20
133.795275
 30
0.0
 11
321.958862
 21
56.227568
 31
0.0
1001
ACAD
1000
RTLwPs
1070
   158
  0
LINE
  5
1E2
100
AcDbEntity
  8
ALS
 62
     0
100
AcDbLine
 10
98.377306
 20
133.795275
 30
0.0
 11
98.377306
 21
56.227568
 31
0.0
1001
ACAD
1000
RTLwPs
1070
   158
  0
POINT
  5
1E3
100
AcDbEntity
  8
DEFPOINTS
 62
     0
100
AcDbPoint
 10
324.458862
 20
49.427568
 30
0.0
  0
POINT
  5
1E4
100
AcDbEntity
  8
DEFPOINTS
 62
     0
100
AcDbPoint
 10
324.458862
 20
80.795275
 30
0.0
  0
POINT
  5
1E5
100
AcDbEntity
  8
DEFPOINTS
 62
     0
100
AcDbPoint
 10
95.877306
 20
80.795275
 30
0.0
  0
LINE
  5
1E6
100
AcDbEntity
  8
ALS
 62
     0
100
AcDbLine
 10
96.877306
 20
49.427568
 30
0.0
 11
323.458862
 21
49.427568
 31
0.0
1001
ACAD
1000
RTLwPs
1070
   158
  0
LINE
  5
1E7
100
AcDbEntity
  8
ALS
 62
     0
100
AcDbLine
 10
324.458862
 20
78.795275
 30
0.0
 11
324.458862
 21
48.227568
 31
0.0
1001
ACAD
1000
RTLwPs
1070
   158
  0
LINE
  5
1E8
100
AcDbEntity
  8
ALS
 62
     0
100
AcDbLine
 10
95.877306
 20
78.795275
 30
0.0
 11
95.877306
 21
48.227568
 31
0.0
1001
ACAD
1000
RTLwPs
1070
   158
  0
POINT
  5
1E9
100
AcDbEntity
  8
DEFPOINTS
 62
     0
100
AcDbPoint
 10
344.458862
 20
219.458893
 30
0.0
  0
POINT
  5
1EA
100
AcDbEntity
  8
DEFPOINTS
 62
     0
100
AcDbPoint
 10
344.458862
 20
190.554469
 30
0.0
  0
POINT
  5
1EB
100
AcDbEntity
  8
DEFPOINTS
 62
     0
100
AcDbPoint
 10
336.458862
 20
180.795275
 30
0.0
  0
LINE
  5
1EC
100
AcDbEntity
  8
ALS
 62
     0
100
AcDbLine
 10
337.458862
 20
219.458893
 30
0.0
 11
343.458862
 21
219.458893
 31
0.0
1001
ACAD
1000
RTLwPs
1070
   158
  0
LINE
  5
1ED
100
AcDbEntity
  8
ALS
 62
     0
100
AcDbLine
 10
344.458862
 20
192.554469
 30
0.0
 11
344.458862
 21
220.658893
 31
0.0
1001
ACAD
1000
RTLwPs
1070
   158
  0
LINE
  5
1EE
100
AcDbEntity
  8
ALS
 62
     0
100
AcDbLine
 10
336.458862
 20
182.795275
 30
0.0
 11
336.458862
 21
220.658893
 31
0.0
1001
ACAD
1000
RTLwPs
1070
   158
  0
POINT
  5
1EF
100
AcDbEntity
  8
DEFPOINTS
 62
     0
100
AcDbPoint
 10
336.458862
 20
199.458893
 30
0.0
  0
POINT
  5
1F0
100
AcDbEntity
  8
DEFPOINTS
 62
     0
100
AcDbPoint
 10
336.458862
 20
180.795275
 30
0.0
  0
POINT
  5
1F1
100
AcDbEntity
  8
DEFPOINTS
 62
     0
100
AcDbPoint
 10
331.458862
 20
180.554013
 30
0.0
  0
LINE
  5
1F2
100
AcDbEntity
  8
ALS
 62
     0
100
AcDbLine
 10
332.458862
 20
199.458893
 30
0.0
 11
335.458862
 21
199.458893
 31
0.0
1001
ACAD
1000
RTLwPs
1070
   158
  0
LINE
  5
1F3
100
AcDbEntity
  8
ALS
 62
     0
100
AcDbLine
 10
336.458862
 20
182.795275
 30
0.0
 11
336.458862
 21
200.658893
 31
0.0
1001
ACAD
1000
RTLwPs
1070
   158
  0
LINE
  5
1F4
100
AcDbEntity
  8
ALS
 62
     0
100
AcDbLine
 10
331.458862
 20
182.554013
 30
0.0
 11
331.458862
 21
200.658893
 31
0.0
1001
ACAD
1000
RTLwPs
1070
   158
  0
POINT
  5
1F5
100
AcDbEntity
  8
DEFPOINTS
 62
     0
100
AcDbPoint
 10
321.958862
 20
209.458893
 30
0.0
  0
POINT
  5
1F6
100
AcDbEntity
  8
DEFPOINTS
 62
     0
100
AcDbPoint
 10
321.958862
 20
170.795275
 30
0.0
  0
POINT
  5
1F7
100
AcDbEntity
  8
DEFPOINTS
 62
     0
100
AcDbPoint
 10
336.458862
 20
180.795275
 30
0.0
  0
LINE
  5
1F8
100
AcDbEntity
  8
ALS
 62
     0
100
AcDbLine
 10
335.458862
 20
209.458893
 30
0.0
 11
322.958862
 21
209.458893
 31
0.0
1001
ACAD
1000
RTLwPs
1070
   158
  0
LINE
  5
1F9
100
AcDbEntity
  8
ALS
 62
     0
100
AcDbLine
 10
321.958862
 20
172.795275
 30
0.0
 11
321.958862
 21
210.658893
 31
0.0
1001
ACAD
1000
RTLwPs
1070
   158
  0
LINE
  5
1FA
100
AcDbEntity
  8
ALS
 62
     0
100
AcDbLine
 10
336.458862
 20
182.795275
 30
0.0
 11
336.458862
 21
210.658893
 31
0.0
1001
ACAD
1000
RTLwPs
1070
   158
  0
POINT
  5
1FB
100
AcDbEntity
  8
DEFPOINTS
 62
     0
100
AcDbPoint
 10
300.458862
 20
209.458893
 30
0.0
  0
POINT
  5
1FC
100
AcDbEntity
  8
DEFPOINTS
 62
     0
100
AcDbPoint
 10
300.458862
 20
177.795275
 30
0.0
  0
POINT
  5
1FD
100
AcDbEntity
  8
DEFPOINTS
 62
     0
100
AcDbPoint
 10
321.958862
 20
170.795275
 30
0.0
  0
LINE
  5
1FE
100
AcDbEntity
  8
ALS
 62
     0
100
AcDbLine
 10
320.958862
 20
209.458893
 30
0.0
 11
301.458862
 21
209.458893
 31
0.0
1001
ACAD
1000
RTLwPs
1070
   158
  0
LINE
  5
1FF
100
AcDbEntity
  8
ALS
 62
     0
100
AcDbLine
 10
300.458862
 20
179.795275
 30
0.0
 11
300.458862
 21
210.658893
 31
0.0
1001
ACAD
1000
RTLwPs
1070
   158
  0
LINE
  5
200
100
AcDbEntity
  8
ALS
 62
     0
100
AcDbLine
 10
321.958862
 20
172.795275
 30
0.0
 11
321.958862
 21
210.658893
 31
0.0
1001
ACAD
1000
RTLwPs
1070
   158
  0
POINT
  5
201
100
AcDbEntity
  8
DEFPOINTS
 62
     0
100
AcDbPoint
 10
300.458862
 20
199.458893
 30
0.0
  0
POINT
  5
202
100
AcDbEntity
  8
DEFPOINTS
 62
     0
100
AcDbPoint
 10
300.458862
 20
177.795275
 30
0.0
  0
POINT
  5
203
100
AcDbEntity
  8
DEFPOINTS
 62
     0
100
AcDbPoint
 10
310.458862
 20
175.795275
 30
0.0
  0
LINE
  5
204
100
AcDbEntity
  8
ALS
 62
     0
100
AcDbLine
 10
309.458862
 20
199.458893
 30
0.0
 11
301.458862
 21
199.458893
 31
0.0
1001
ACAD
1000
RTLwPs
1070
   158
  0
LINE
  5
205
100
AcDbEntity
  8
ALS
 62
     0
100
AcDbLine
 10
300.458862
 20
179.795275
 30
0.0
 11
300.458862
 21
200.658893
 31
0.0
1001
ACAD
1000
RTLwPs
1070
   158
  0
LINE
  5
206
100
AcDbEntity
  8
ALS
 62
     0
100
AcDbLine
 10
310.458862
 20
177.795275
 30
0.0
 11
310.458862
 21
200.658893
 31
0.0
1001
ACAD
1000
RTLwPs
1070
   158
  0
POINT
  5
207
100
AcDbEntity
  8
DEFPOINTS
 62
     0
100
AcDbPoint
 10
316.458862
 20
199.458893
 30
0.0
  0
POINT
  5
208
100
AcDbEntity
  8
DEFPOINTS
 62
     0
100
AcDbPoint
 10
316.458862
 20
176.795275
 30
0.0
  0
POINT
  5
209
100
AcDbEntity
  8
DEFPOINTS
 62
     0
100
AcDbPoint
 10
310.458862
 20
175.795275
 30
0.0
  0
LINE
  5
20A
100
AcDbEntity
  8
ALS
 62
     0
100
AcDbLine
 10
311.458862
 20
199.458893
 30
0.0
 11
315.458862
 21
199.458893
 31
0.0
1001
ACAD
1000
RTLwPs
1070
   158
  0
LINE
  5
20B
100
AcDbEntity
  8
ALS
 62
     0
100
AcDbLine
 10
316.458862
 20
178.795275
 30
0.0
 11
316.458862
 21
200.658893
 31
0.0
1001
ACAD
1000
RTLwPs
1070
   158
  0
LINE
  5
20C
100
AcDbEntity
  8
ALS
 62
     0
100
AcDbLine
 10
310.458862
 20
177.795275
 30
0.0
 11
310.458862
 21
200.658893
 31
0.0
1001
ACAD
1000
RTLwPs
1070
   158
  0
POINT
  5
20D
100
AcDbEntity
  8
DEFPOINTS
 62
     0
100
AcDbPoint
 10
300.458862
 20
219.458893
 30
0.0
  0
POINT
  5
20E
100
AcDbEntity
  8
DEFPOINTS
 62
     0
100
AcDbPoint
 10
300.458862
 20
177.795275
 30
0.0
  0
POINT
  5
20F
100
AcDbEntity
  8
DEFPOINTS
 62
     0
100
AcDbPoint
 10
336.458862
 20
180.795275
 30
0.0
  0
LINE
  5
210
100
AcDbEntity
  8
ALS
 62
     0
100
AcDbLine
 10
335.458862
 20
219.458893
 30
0.0
 11
301.458862
 21
219.458893
 31
0.0
1001
ACAD
1000
RTLwPs
1070
   158
  0
LINE
  5
211
100
AcDbEntity
  8
ALS
 62
     0
100
AcDbLine
 10
300.458862
 20
179.795275
 30
0.0
 11
300.458862
 21
220.658893
 31
0.0
1001
ACAD
1000
RTLwPs
1070
   158
  0
LINE
  5
212
100
AcDbEntity
  8
ALS
 62
     0
100
AcDbLine
 10
336.458862
 20
182.795275
 30
0.0
 11
336.458862
 21
220.658893
 31
0.0
1001
ACAD
1000
RTLwPs
1070
   158
  0
POINT
  5
213
100
AcDbEntity
  8
DEFPOINTS
 62
     0
100
AcDbPoint
 10
119.877306
 20
219.458893
 30
0.0
  0
POINT
  5
214
100
AcDbEntity
  8
DEFPOINTS
 62
     0
100
AcDbPoint
 10
119.877306
 20
177.795275
 30
0.0
  0
POINT
  5
215
100
AcDbEntity
  8
DEFPOINTS
 62
     0
100
AcDbPoint
 10
300.458862
 20
177.795275
 30
0.0
  0
LINE
  5
216
100
AcDbEntity
  8
ALS
 62
     0
100
AcDbLine
 10
299.458862
 20
219.458893
 30
0.0
 11
120.877306
 21
219.458893
 31
0.0
1001
ACAD
1000
RTLwPs
1070
   158
  0
LINE
  5
217
100
AcDbEntity
  8
ALS
 62
     0
100
AcDbLine
 10
119.877306
 20
179.795275
 30
0.0
 11
119.877306
 21
220.658893
 31
0.0
1001
ACAD
1000
RTLwPs
1070
   158
  0
LINE
  5
218
100
AcDbEntity
  8
ALS
 62
     0
100
AcDbLine
 10
300.458862
 20
179.795275
 30
0.0
 11
300.458862
 21
220.658893
 31
0.0
1001
ACAD
1000
RTLwPs
1070
   158
  0
POINT
  5
219
100
AcDbEntity
  8
DEFPOINTS
 62
     0
100
AcDbPoint
 10
119.877306
 20
219.458893
 30
0.0
  0
POINT
  5
21A
100
AcDbEntity
  8
DEFPOINTS
 62
     0
100
AcDbPoint
 10
119.877306
 20
177.795275
 30
0.0
  0
POINT
  5
21B
100
AcDbEntity
  8
DEFPOINTS
 62
     0
100
AcDbPoint
 10
83.877306
 20
180.795275
 30
0.0
  0
LINE
  5
21C
100
AcDbEntity
  8
ALS
 62
     0
100
AcDbLine
 10
84.877306
 20
219.458893
 30
0.0
 11
118.877306
 21
219.458893
 31
0.0
1001
ACAD
1000
RTLwPs
1070
   158
  0
LINE
  5
21D
100
AcDbEntity
  8
ALS
 62
     0
100
AcDbLine
 10
119.877306
 20
179.795275
 30
0.0
 11
119.877306
 21
220.658893
 31
0.0
1001
ACAD
1000
RTLwPs
1070
   158
  0
LINE
  5
21E
100
AcDbEntity
  8
ALS
 62
     0
100
AcDbLine
 10
83.877306
 20
182.795275
 30
0.0
 11
83.877306
 21
220.658893
 31
0.0
1001
ACAD
1000
RTLwPs
1070
   158
  0
POINT
  5
21F
100
AcDbEntity
  8
DEFPOINTS
 62
     0
100
AcDbPoint
 10
103.877306
 20
199.458893
 30
0.0
  0
POINT
  5
220
100
AcDbEntity
  8
DEFPOINTS
 62
     0
100
AcDbPoint
 10
103.877306
 20
176.795275
 30
0.0
  0
POINT
  5
221
100
AcDbEntity
  8
DEFPOINTS
 62
     0
100
AcDbPoint
 10
109.877306
 20
175.795275
 30
0.0
  0
LINE
  5
222
100
AcDbEntity
  8
ALS
 62
     0
100
AcDbLine
 10
108.877306
 20
199.458893
 30
0.0
 11
104.877306
 21
199.458893
 31
0.0
1001
ACAD
1000
RTLwPs
1070
   158
  0
LINE
  5
223
100
AcDbEntity
  8
ALS
 62
     0
100
AcDbLine
 10
103.877306
 20
178.795275
 30
0.0
 11
103.877306
 21
200.658893
 31
0.0
1001
ACAD
1000
RTLwPs
1070
   158
  0
LINE
  5
224
100
AcDbEntity
  8
ALS
 62
     0
100
AcDbLine
 10
109.877306
 20
177.795275
 30
0.0
 11
109.877306
 21
200.658893
 31
0.0
1001
ACAD
1000
RTLwPs
1070
   158
  0
POINT
  5
225
100
AcDbEntity
  8
DEFPOINTS
 62
     0
100
AcDbPoint
 10
119.877306
 20
199.458893
 30
0.0
  0
POINT
  5
226
100
AcDbEntity
  8
DEFPOINTS
 62
     0
100
AcDbPoint
 10
119.877306
 20
177.795275
 30
0.0
  0
POINT
  5
227
100
AcDbEntity
  8
DEFPOINTS
 62
     0
100
AcDbPoint
 10
109.877306
 20
175.795275
 30
0.0
  0
LINE
  5
228
100
AcDbEntity
  8
ALS
 62
     0
100
AcDbLine
 10
110.877306
 20
199.458893
 30
0.0
 11
118.877306
 21
199.458893
 31
0.0
1001
ACAD
1000
RTLwPs
1070
   158
  0
LINE
  5
229
100
AcDbEntity
  8
ALS
 62
     0
100
AcDbLine
 10
119.877306
 20
179.795275
 30
0.0
 11
119.877306
 21
200.658893
 31
0.0
1001
ACAD
1000
RTLwPs
1070
   158
  0
LINE
  5
22A
100
AcDbEntity
  8
ALS
 62
     0
100
AcDbLine
 10
109.877306
 20
177.795275
 30
0.0
 11
109.877306
 21
200.658893
 31
0.0
1001
ACAD
1000
RTLwPs
1070
   158
  0
POINT
  5
22B
100
AcDbEntity
  8
DEFPOINTS
 62
     0
100
AcDbPoint
 10
119.877306
 20
209.458893
 30
0.0
  0
POINT
  5
22C
100
AcDbEntity
  8
DEFPOINTS
 62
     0
100
AcDbPoint
 10
119.877306
 20
177.795275
 30
0.0
  0
POINT
  5
22D
100
AcDbEntity
  8
DEFPOINTS
 62
     0
100
AcDbPoint
 10
98.377306
 20
170.795275
 30
0.0
  0
LINE
  5
22E
100
AcDbEntity
  8
ALS
 62
     0
100
AcDbLine
 10
99.377306
 20
209.458893
 30
0.0
 11
118.877306
 21
209.458893
 31
0.0
1001
ACAD
1000
RTLwPs
1070
   158
  0
LINE
  5
22F
100
AcDbEntity
  8
ALS
 62
     0
100
AcDbLine
 10
119.877306
 20
179.795275
 30
0.0
 11
119.877306
 21
210.658893
 31
0.0
1001
ACAD
1000
RTLwPs
1070
   158
  0
LINE
  5
230
100
AcDbEntity
  8
ALS
 62
     0
100
AcDbLine
 10
98.377306
 20
172.795275
 30
0.0
 11
98.377306
 21
210.658893
 31
0.0
1001
ACAD
1000
RTLwPs
1070
   158
  0
POINT
  5
231
100
AcDbEntity
  8
DEFPOINTS
 62
     0
100
AcDbPoint
 10
98.377306
 20
209.458893
 30
0.0
  0
POINT
  5
232
100
AcDbEntity
  8
DEFPOINTS
 62
     0
100
AcDbPoint
 10
98.377306
 20
170.795275
 30
0.0
  0
POINT
  5
233
100
AcDbEntity
  8
DEFPOINTS
 62
     0
100
AcDbPoint
 10
83.877306
 20
180.795275
 30
0.0
  0
LINE
  5
234
100
AcDbEntity
  8
ALS
 62
     0
100
AcDbLine
 10
84.877306
 20
209.458893
 30
0.0
 11
97.377306
 21
209.458893
 31
0.0
1001
ACAD
1000
RTLwPs
1070
   158
  0
LINE
  5
235
100
AcDbEntity
  8
ALS
 62
     0
100
AcDbLine
 10
98.377306
 20
172.795275
 30
0.0
 11
98.377306
 21
210.658893
 31
0.0
1001
ACAD
1000
RTLwPs
1070
   158
  0
LINE
  5
236
100
AcDbEntity
  8
ALS
 62
     0
100
AcDbLine
 10
83.877306
 20
182.795275
 30
0.0
 11
83.877306
 21
210.658893
 31
0.0
1001
ACAD
1000
RTLwPs
1070
   158
  0
POINT
  5
237
100
AcDbEntity
  8
DEFPOINTS
 62
     0
100
AcDbPoint
 10
75.877306
 20
219.458893
 30
0.0
  0
POINT
  5
238
100
AcDbEntity
  8
DEFPOINTS
 62
     0
100
AcDbPoint
 10
75.877306
 20
190.554469
 30
0.0
  0
POINT
  5
239
100
AcDbEntity
  8
DEFPOINTS
 62
     0
100
AcDbPoint
 10
83.877306
 20
180.795275
 30
0.0
  0
LINE
  5
23A
100
AcDbEntity
  8
ALS
 62
     0
100
AcDbLine
 10
82.877306
 20
219.458893
 30
0.0
 11
76.877306
 21
219.458893
 31
0.0
1001
ACAD
1000
RTLwPs
1070
   158
  0
LINE
  5
23B
100
AcDbEntity
  8
ALS
 62
     0
100
AcDbLine
 10
75.877306
 20
192.554469
 30
0.0
 11
75.877306
 21
220.658893
 31
0.0
1001
ACAD
1000
RTLwPs
1070
   158
  0
LINE
  5
23C
100
AcDbEntity
  8
ALS
 62
     0
100
AcDbLine
 10
83.877306
 20
182.795275
 30
0.0
 11
83.877306
 21
220.658893
 31
0.0
1001
ACAD
1000
RTLwPs
1070
   158
  0
POINT
  5
23D
100
AcDbEntity
  8
DEFPOINTS
 62
     0
100
AcDbPoint
 10
83.877306
 20
199.458893
 30
0.0
  0
POINT
  5
23E
100
AcDbEntity
  8
DEFPOINTS
 62
     0
100
AcDbPoint
 10
83.877306
 20
180.795275
 30
0.0
  0
POINT
  5
23F
100
AcDbEntity
  8
DEFPOINTS
 62
     0
100
AcDbPoint
 10
88.877306
 20
180.554013
 30
0.0
  0
LINE
  5
240
100
AcDbEntity
  8
ALS
 62
     0
100
AcDbLine
 10
87.877306
 20
199.458893
 30
0.0
 11
84.877306
 21
199.458893
 31
0.0
1001
ACAD
1000
RTLwPs
1070
   158
  0
LINE
  5
241
100
AcDbEntity
  8
ALS
 62
     0
100
AcDbLine
 10
83.877306
 20
182.795275
 30
0.0
 11
83.877306
 21
200.658893
 31
0.0
1001
ACAD
1000
RTLwPs
1070
   158
  0
LINE
  5
242
100
AcDbEntity
  8
ALS
 62
     0
100
AcDbLine
 10
88.877306
 20
182.554013
 30
0.0
 11
88.877306
 21
200.658893
 31
0.0
1001
ACAD
1000
RTLwPs
1070
   158
  0
LINE
  5
243
100
AcDbEntity
  8
AHA
100
AcDbLine
 10
105.48457
 20
136.25
 30
0.0
 11
105.48457
 21
136.25
 31
0.0
  0
LINE
  5
245
100
AcDbEntity
  8
AHA
100
AcDbLine
 10
104.85957
 20
136.25
 30
0.0
 11
104.85957
 21
136.25
 31
0.0
  0
LINE
  5
246
100
AcDbEntity
  8
AHA
100
AcDbLine
 10
104.23457
 20
136.25
 30
0.0
 11
104.23457
 21
136.25
 31
0.0
  0
LINE
  5
247
100
AcDbEntity
  8
AHA
100
AcDbLine
 10
103.60957
 20
136.25
 30
0.0
 11
103.60957
 21
136.25
 31
0.0
  0
LINE
  5
248
100
AcDbEntity
  8
AHA
100
AcDbLine
 10
102.98457
 20
136.25
 30
0.0
 11
102.98457
 21
136.25
 31
0.0
  0
LINE
  5
249
100
AcDbEntity
  8
AHA
100
AcDbLine
 10
102.35957
 20
136.25
 30
0.0
 11
102.35957
 21
136.25
 31
0.0
  0
LINE
  5
24A
100
AcDbEntity
  8
AHA
100
AcDbLine
 10
105.79707
 20
136.875
 30
0.0
 11
105.79707
 21
136.875
 31
0.0
  0
LINE
  5
24B
100
AcDbEntity
  8
AHA
100
AcDbLine
 10
105.17207
 20
136.875
 30
0.0
 11
105.17207
 21
136.875
 31
0.0
  0
LINE
  5
24C
100
AcDbEntity
  8
AHA
100
AcDbLine
 10
104.54707
 20
136.875
 30
0.0
 11
104.54707
 21
136.875
 31
0.0
  0
LINE
  5
24D
100
AcDbEntity
  8
AHA
100
AcDbLine
 10
103.92207
 20
136.875
 30
0.0
 11
103.92207
 21
136.875
 31
0.0
  0
LINE
  5
24E
100
AcDbEntity
  8
AHA
100
AcDbLine
 10
102.67207
 20
136.875
 30
0.0
 11
102.67207
 21
136.875
 31
0.0
  0
LINE
  5
24F
100
AcDbEntity
  8
AHA
100
AcDbLine
 10
102.04707
 20
136.875
 30
0.0
 11
102.04707
 21
136.875
 31
0.0
  0
LINE
  5
250
100
AcDbEntity
  8
AHA
100
AcDbLine
 10
105.48457
 20
137.5
 30
0.0
 11
105.48457
 21
137.5
 31
0.0
  0
LINE
  5
251
100
AcDbEntity
  8
AHA
100
AcDbLine
 10
104.85957
 20
137.5
 30
0.0
 11
104.85957
 21
137.5
 31
0.0
  0
LINE
  5
252
100
AcDbEntity
  8
AHA
100
AcDbLine
 10
104.23457
 20
137.5
 30
0.0
 11
104.23457
 21
137.5
 31
0.0
  0
LINE
  5
253
100
AcDbEntity
  8
AHA
100
AcDbLine
 10
102.35957
 20
137.5
 30
0.0
 11
102.35957
 21
137.5
 31
0.0
  0
LINE
  5
254
100
AcDbEntity
  8
AHA
100
AcDbLine
 10
104.54707
 20
138.125
 30
0.0
 11
104.54707
 21
138.125
 31
0.0
  0
LINE
  5
255
100
AcDbEntity
  8
AHA
100
AcDbLine
 10
103.92207
 20
138.125
 30
0.0
 11
103.92207
 21
138.125
 31
0.0
  0
LINE
  5
256
100
AcDbEntity
  8
AHA
100
AcDbLine
 10
104.85957
 20
138.75
 30
0.0
 11
104.85957
 21
138.75
 31
0.0
  0
LINE
  5
257
100
AcDbEntity
  8
AHA
100
AcDbLine
 10
104.23457
 20
138.75
 30
0.0
 11
104.23457
 21
138.75
 31
0.0
  0
LINE
  5
258
100
AcDbEntity
  8
AHA
100
AcDbLine
 10
105.79707
 20
139.375
 30
0.0
 11
105.79707
 21
139.375
 31
0.0
  0
LINE
  5
259
100
AcDbEntity
  8
AHA
100
AcDbLine
 10
105.17207
 20
139.375
 30
0.0
 11
105.17207
 21
139.375
 31
0.0
  0
LINE
  5
25A
100
AcDbEntity
  8
AHA
100
AcDbLine
 10
104.54707
 20
139.375
 30
0.0
 11
104.54707
 21
139.375
 31
0.0
  0
LINE
  5
25B
100
AcDbEntity
  8
AHA
100
AcDbLine
 10
103.92207
 20
139.375
 30
0.0
 11
103.92207
 21
139.375
 31
0.0
  0
LINE
  5
25C
100
AcDbEntity
  8
AHA
100
AcDbLine
 10
105.48457
 20
140.0
 30
0.0
 11
105.48457
 21
140.0
 31
0.0
  0
LINE
  5
25D
100
AcDbEntity
  8
AHA
100
AcDbLine
 10
104.85957
 20
140.0
 30
0.0
 11
104.85957
 21
140.0
 31
0.0
  0
LINE
  5
25E
100
AcDbEntity
  8
AHA
100
AcDbLine
 10
104.23457
 20
140.0
 30
0.0
 11
104.23457
 21
140.0
 31
0.0
  0
LINE
  5
25F
100
AcDbEntity
  8
AHA
100
AcDbLine
 10
105.79707
 20
140.625
 30
0.0
 11
105.79707
 21
140.625
 31
0.0
  0
LINE
  5
260
100
AcDbEntity
  8
AHA
100
AcDbLine
 10
105.17207
 20
140.625
 30
0.0
 11
105.17207
 21
140.625
 31
0.0
  0
LINE
  5
261
100
AcDbEntity
  8
AHA
100
AcDbLine
 10
104.54707
 20
140.625
 30
0.0
 11
104.54707
 21
140.625
 31
0.0
  0
LINE
  5
262
100
AcDbEntity
  8
AHA
100
AcDbLine
 10
103.92207
 20
140.625
 30
0.0
 11
103.92207
 21
140.625
 31
0.0
  0
LINE
  5
263
100
AcDbEntity
  8
AHA
100
AcDbLine
 10
105.48457
 20
141.25
 30
0.0
 11
105.48457
 21
141.25
 31
0.0
  0
LINE
  5
264
100
AcDbEntity
  8
AHA
100
AcDbLine
 10
105.79707
 20
141.875
 30
0.0
 11
105.79707
 21
141.875
 31
0.0
  0
LINE
  5
265
100
AcDbEntity
  8
AHA
100
AcDbLine
 10
105.17207
 20
141.875
 30
0.0
 11
105.17207
 21
141.875
 31
0.0
  0
LINE
  5
266
100
AcDbEntity
  8
AHA
100
AcDbLine
 10
105.48457
 20
142.5
 30
0.0
 11
105.48457
 21
142.5
 31
0.0
  0
LINE
  5
267
100
AcDbEntity
  8
AHA
100
AcDbLine
 10
105.79707
 20
143.125
 30
0.0
 11
105.79707
 21
143.125
 31
0.0
  0
LINE
  5
268
100
AcDbEntity
  8
AHA
100
AcDbLine
 10
105.17207
 20
143.125
 30
0.0
 11
105.17207
 21
143.125
 31
0.0
  0
LINE
  5
269
100
AcDbEntity
  8
AHA
100
AcDbLine
 10
105.48457
 20
143.75
 30
0.0
 11
105.48457
 21
143.75
 31
0.0
  0
LINE
  5
26A
100
AcDbEntity
  8
AHA
100
AcDbLine
 10
105.79707
 20
144.375
 30
0.0
 11
105.79707
 21
144.375
 31
0.0
  0
LINE
  5
26B
100
AcDbEntity
  8
AHA
100
AcDbLine
 10
105.17207
 20
144.375
 30
0.0
 11
105.17207
 21
144.375
 31
0.0
  0
LINE
  5
26C
100
AcDbEntity
  8
AHA
100
AcDbLine
 10
105.48457
 20
145.0
 30
0.0
 11
105.48457
 21
145.0
 31
0.0
  0
LINE
  5
26D
100
AcDbEntity
  8
AHA
100
AcDbLine
 10
105.79707
 20
145.625
 30
0.0
 11
105.79707
 21
145.625
 31
0.0
  0
LINE
  5
26E
100
AcDbEntity
  8
AHA
100
AcDbLine
 10
105.17207
 20
145.625
 30
0.0
 11
105.17207
 21
145.625
 31
0.0
  0
LINE
  5
26F
100
AcDbEntity
  8
AHA
100
AcDbLine
 10
105.48457
 20
146.25
 30
0.0
 11
105.48457
 21
146.25
 31
0.0
  0
LINE
  5
270
100
AcDbEntity
  8
AHA
100
AcDbLine
 10
105.79707
 20
146.875
 30
0.0
 11
105.79707
 21
146.875
 31
0.0
  0
LINE
  5
271
100
AcDbEntity
  8
AHA
100
AcDbLine
 10
105.17207
 20
146.875
 30
0.0
 11
105.17207
 21
146.875
 31
0.0
  0
LINE
  5
272
100
AcDbEntity
  8
AHA
100
AcDbLine
 10
105.48457
 20
147.5
 30
0.0
 11
105.48457
 21
147.5
 31
0.0
  0
LINE
  5
273
100
AcDbEntity
  8
AHA
100
AcDbLine
 10
105.79707
 20
148.125
 30
0.0
 11
105.79707
 21
148.125
 31
0.0
  0
LINE
  5
274
100
AcDbEntity
  8
AHA
100
AcDbLine
 10
105.17207
 20
148.125
 30
0.0
 11
105.17207
 21
148.125
 31
0.0
  0
LINE
  5
275
100
AcDbEntity
  8
AHA
100
AcDbLine
 10
105.48457
 20
148.75
 30
0.0
 11
105.48457
 21
148.75
 31
0.0
  0
LINE
  5
276
100
AcDbEntity
  8
AHA
100
AcDbLine
 10
105.79707
 20
149.375
 30
0.0
 11
105.79707
 21
149.375
 31
0.0
  0
LINE
  5
277
100
AcDbEntity
  8
AHA
100
AcDbLine
 10
105.17207
 20
149.375
 30
0.0
 11
105.17207
 21
149.375
 31
0.0
  0
LINE
  5
278
100
AcDbEntity
  8
AHA
100
AcDbLine
 10
105.48457
 20
150.0
 30
0.0
 11
105.48457
 21
150.0
 31
0.0
  0
LINE
  5
279
100
AcDbEntity
  8
AHA
100
AcDbLine
 10
105.79707
 20
150.625
 30
0.0
 11
105.79707
 21
150.625
 31
0.0
  0
LINE
  5
27A
100
AcDbEntity
  8
AHA
100
AcDbLine
 10
105.17207
 20
150.625
 30
0.0
 11
105.17207
 21
150.625
 31
0.0
  0
LINE
  5
27B
100
AcDbEntity
  8
AHA
100
AcDbLine
 10
105.48457
 20
151.25
 30
0.0
 11
105.48457
 21
151.25
 31
0.0
  0
LINE
  5
27C
100
AcDbEntity
  8
AHA
100
AcDbLine
 10
105.79707
 20
151.875
 30
0.0
 11
105.79707
 21
151.875
 31
0.0
  0
LINE
  5
27D
100
AcDbEntity
  8
AHA
100
AcDbLine
 10
105.17207
 20
151.875
 30
0.0
 11
105.17207
 21
151.875
 31
0.0
  0
LINE
  5
27E
100
AcDbEntity
  8
AHA
100
AcDbLine
 10
105.48457
 20
152.5
 30
0.0
 11
105.48457
 21
152.5
 31
0.0
  0
LINE
  5
27F
100
AcDbEntity
  8
AHA
100
AcDbLine
 10
104.85957
 20
152.5
 30
0.0
 11
104.85957
 21
152.5
 31
0.0
  0
LINE
  5
280
100
AcDbEntity
  8
AHA
100
AcDbLine
 10
104.23457
 20
152.5
 30
0.0
 11
104.23457
 21
152.5
 31
0.0
  0
LINE
  5
281
100
AcDbEntity
  8
AHA
100
AcDbLine
 10
105.79707
 20
153.125
 30
0.0
 11
105.79707
 21
153.125
 31
0.0
  0
LINE
  5
282
100
AcDbEntity
  8
AHA
100
AcDbLine
 10
105.17207
 20
153.125
 30
0.0
 11
105.17207
 21
153.125
 31
0.0
  0
LINE
  5
283
100
AcDbEntity
  8
AHA
100
AcDbLine
 10
104.54707
 20
153.125
 30
0.0
 11
104.54707
 21
153.125
 31
0.0
  0
LINE
  5
284
100
AcDbEntity
  8
AHA
100
AcDbLine
 10
103.92207
 20
153.125
 30
0.0
 11
103.92207
 21
153.125
 31
0.0
  0
LINE
  5
285
100
AcDbEntity
  8
AHA
100
AcDbLine
 10
105.48457
 20
153.75
 30
0.0
 11
105.48457
 21
153.75
 31
0.0
  0
LINE
  5
286
100
AcDbEntity
  8
AHA
100
AcDbLine
 10
104.85957
 20
153.75
 30
0.0
 11
104.85957
 21
153.75
 31
0.0
  0
LINE
  5
287
100
AcDbEntity
  8
AHA
100
AcDbLine
 10
104.23457
 20
153.75
 30
0.0
 11
104.23457
 21
153.75
 31
0.0
  0
LINE
  5
288
100
AcDbEntity
  8
AHA
100
AcDbLine
 10
104.54707
 20
154.375
 30
0.0
 11
104.54707
 21
154.375
 31
0.0
  0
LINE
  5
289
100
AcDbEntity
  8
AHA
100
AcDbLine
 10
103.92207
 20
154.375
 30
0.0
 11
103.92207
 21
154.375
 31
0.0
  0
LINE
  5
28A
100
AcDbEntity
  8
AHA
100
AcDbLine
 10
104.85957
 20
155.0
 30
0.0
 11
104.85957
 21
155.0
 31
0.0
  0
LINE
  5
28B
100
AcDbEntity
  8
AHA
100
AcDbLine
 10
104.23457
 20
155.0
 30
0.0
 11
104.23457
 21
155.0
 31
0.0
  0
LINE
  5
28C
100
AcDbEntity
  8
AHA
100
AcDbLine
 10
105.79707
 20
155.625
 30
0.0
 11
105.79707
 21
155.625
 31
0.0
  0
LINE
  5
28D
100
AcDbEntity
  8
AHA
100
AcDbLine
 10
105.17207
 20
155.625
 30
0.0
 11
105.17207
 21
155.625
 31
0.0
  0
LINE
  5
28E
100
AcDbEntity
  8
AHA
100
AcDbLine
 10
104.54707
 20
155.625
 30
0.0
 11
104.54707
 21
155.625
 31
0.0
  0
LINE
  5
28F
100
AcDbEntity
  8
AHA
100
AcDbLine
 10
103.92207
 20
155.625
 30
0.0
 11
103.92207
 21
155.625
 31
0.0
  0
LINE
  5
290
100
AcDbEntity
  8
AHA
100
AcDbLine
 10
105.48457
 20
156.25
 30
0.0
 11
105.48457
 21
156.25
 31
0.0
  0
LINE
  5
291
100
AcDbEntity
  8
AHA
100
AcDbLine
 10
104.85957
 20
156.25
 30
0.0
 11
104.85957
 21
156.25
 31
0.0
  0
LINE
  5
292
100
AcDbEntity
  8
AHA
100
AcDbLine
 10
104.23457
 20
156.25
 30
0.0
 11
104.23457
 21
156.25
 31
0.0
  0
LINE
  5
293
100
AcDbEntity
  8
AHA
100
AcDbLine
 10
105.79707
 20
156.875
 30
0.0
 11
105.79707
 21
156.875
 31
0.0
  0
LINE
  5
294
100
AcDbEntity
  8
AHA
100
AcDbLine
 10
105.17207
 20
156.875
 30
0.0
 11
105.17207
 21
156.875
 31
0.0
  0
LINE
  5
295
100
AcDbEntity
  8
AHA
100
AcDbLine
 10
104.54707
 20
156.875
 30
0.0
 11
104.54707
 21
156.875
 31
0.0
  0
LINE
  5
296
100
AcDbEntity
  8
AHA
100
AcDbLine
 10
103.92207
 20
156.875
 30
0.0
 11
103.92207
 21
156.875
 31
0.0
  0
LINE
  5
297
100
AcDbEntity
  8
AHA
100
AcDbLine
 10
105.48457
 20
157.5
 30
0.0
 11
105.48457
 21
157.5
 31
0.0
  0
LINE
  5
298
100
AcDbEntity
  8
AHA
100
AcDbLine
 10
104.85957
 20
157.5
 30
0.0
 11
104.85957
 21
157.5
 31
0.0
  0
LINE
  5
299
100
AcDbEntity
  8
AHA
100
AcDbLine
 10
104.23457
 20
157.5
 30
0.0
 11
104.23457
 21
157.5
 31
0.0
  0
LINE
  5
29A
100
AcDbEntity
  8
AHA
100
AcDbLine
 10
105.79707
 20
158.125
 30
0.0
 11
105.79707
 21
158.125
 31
0.0
  0
LINE
  5
29B
100
AcDbEntity
  8
AHA
100
AcDbLine
 10
105.17207
 20
158.125
 30
0.0
 11
105.17207
 21
158.125
 31
0.0
  0
LINE
  5
29C
100
AcDbEntity
  8
AHA
100
AcDbLine
 10
105.48457
 20
158.75
 30
0.0
 11
105.48457
 21
158.75
 31
0.0
  0
LINE
  5
29D
100
AcDbEntity
  8
AHA
100
AcDbLine
 10
105.79707
 20
159.375
 30
0.0
 11
105.79707
 21
159.375
 31
0.0
  0
LINE
  5
29E
100
AcDbEntity
  8
AHA
100
AcDbLine
 10
105.17207
 20
159.375
 30
0.0
 11
105.17207
 21
159.375
 31
0.0
  0
LINE
  5
29F
100
AcDbEntity
  8
AHA
100
AcDbLine
 10
105.48457
 20
160.0
 30
0.0
 11
105.48457
 21
160.0
 31
0.0
  0
LINE
  5
2A0
100
AcDbEntity
  8
AHA
100
AcDbLine
 10
105.79707
 20
160.625
 30
0.0
 11
105.79707
 21
160.625
 31
0.0
  0
LINE
  5
2A1
100
AcDbEntity
  8
AHA
100
AcDbLine
 10
105.17207
 20
160.625
 30
0.0
 11
105.17207
 21
160.625
 31
0.0
  0
LINE
  5
2A2
100
AcDbEntity
  8
AHA
100
AcDbLine
 10
105.48457
 20
161.25
 30
0.0
 11
105.48457
 21
161.25
 31
0.0
  0
LINE
  5
2A3
100
AcDbEntity
  8
AHA
100
AcDbLine
 10
105.79707
 20
161.875
 30
0.0
 11
105.79707
 21
161.875
 31
0.0
  0
LINE
  5
2A4
100
AcDbEntity
  8
AHA
100
AcDbLine
 10
105.17207
 20
161.875
 30
0.0
 11
105.17207
 21
161.875
 31
0.0
  0
LINE
  5
2A5
100
AcDbEntity
  8
AHA
100
AcDbLine
 10
105.48457
 20
162.5
 30
0.0
 11
105.48457
 21
162.5
 31
0.0
  0
LINE
  5
2A6
100
AcDbEntity
  8
AHA
100
AcDbLine
 10
105.79707
 20
163.125
 30
0.0
 11
105.79707
 21
163.125
 31
0.0
  0
LINE
  5
2A7
100
AcDbEntity
  8
AHA
100
AcDbLine
 10
105.17207
 20
163.125
 30
0.0
 11
105.17207
 21
163.125
 31
0.0
  0
LINE
  5
2A8
100
AcDbEntity
  8
AHA
100
AcDbLine
 10
105.48457
 20
163.75
 30
0.0
 11
105.48457
 21
163.75
 31
0.0
  0
LINE
  5
2A9
100
AcDbEntity
  8
AHA
100
AcDbLine
 10
105.79707
 20
164.375
 30
0.0
 11
105.79707
 21
164.375
 31
0.0
  0
LINE
  5
2AA
100
AcDbEntity
  8
AHA
100
AcDbLine
 10
105.17207
 20
164.375
 30
0.0
 11
105.17207
 21
164.375
 31
0.0
  0
LINE
  5
2AB
100
AcDbEntity
  8
AHA
100
AcDbLine
 10
105.48457
 20
165.0
 30
0.0
 11
105.48457
 21
165.0
 31
0.0
  0
LINE
  5
2AC
100
AcDbEntity
  8
AHA
100
AcDbLine
 10
105.79707
 20
165.625
 30
0.0
 11
105.79707
 21
165.625
 31
0.0
  0
LINE
  5
2AD
100
AcDbEntity
  8
AHA
100
AcDbLine
 10
105.17207
 20
165.625
 30
0.0
 11
105.17207
 21
165.625
 31
0.0
  0
LINE
  5
2AE
100
AcDbEntity
  8
AHA
100
AcDbLine
 10
105.48457
 20
166.25
 30
0.0
 11
105.48457
 21
166.25
 31
0.0
  0
LINE
  5
2AF
100
AcDbEntity
  8
AHA
100
AcDbLine
 10
105.79707
 20
166.875
 30
0.0
 11
105.79707
 21
166.875
 31
0.0
  0
LINE
  5
2B0
100
AcDbEntity
  8
AHA
100
AcDbLine
 10
105.17207
 20
166.875
 30
0.0
 11
105.17207
 21
166.875
 31
0.0
  0
LINE
  5
2B1
100
AcDbEntity
  8
AHA
100
AcDbLine
 10
105.48457
 20
167.5
 30
0.0
 11
105.48457
 21
167.5
 31
0.0
  0
LINE
  5
2B2
100
AcDbEntity
  8
AHA
100
AcDbLine
 10
104.85957
 20
167.5
 30
0.0
 11
104.85957
 21
167.5
 31
0.0
  0
LINE
  5
2B3
100
AcDbEntity
  8
AHA
100
AcDbLine
 10
105.79707
 20
168.125
 30
0.0
 11
105.79707
 21
168.125
 31
0.0
  0
LINE
  5
2B4
100
AcDbEntity
  8
AHA
100
AcDbLine
 10
105.17207
 20
168.125
 30
0.0
 11
105.17207
 21
168.125
 31
0.0
  0
LINE
  5
2B5
100
AcDbEntity
  8
AHA
100
AcDbLine
 10
104.54707
 20
168.125
 30
0.0
 11
104.54707
 21
168.125
 31
0.0
  0
LINE
  5
2B6
100
AcDbEntity
  8
AHA
100
AcDbLine
 10
105.48457
 20
168.75
 30
0.0
 11
105.48457
 21
168.75
 31
0.0
  0
LINE
  5
2B7
100
AcDbEntity
  8
AHA
100
AcDbLine
 10
104.85957
 20
168.75
 30
0.0
 11
104.85957
 21
168.75
 31
0.0
  0
LINE
  5
2B8
100
AcDbEntity
  8
AHA
100
AcDbLine
 10
104.23457
 20
168.75
 30
0.0
 11
104.23457
 21
168.75
 31
0.0
  0
LINE
  5
2B9
100
AcDbEntity
  8
AHA
100
AcDbLine
 10
103.60957
 20
168.75
 30
0.0
 11
103.60957
 21
168.75
 31
0.0
  0
LINE
  5
2BA
100
AcDbEntity
  8
AHA
100
AcDbLine
 10
105.79707
 20
169.375
 30
0.0
 11
105.79707
 21
169.375
 31
0.0
  0
LINE
  5
2BB
100
AcDbEntity
  8
AHA
100
AcDbLine
 10
105.17207
 20
169.375
 30
0.0
 11
105.17207
 21
169.375
 31
0.0
  0
LINE
  5
2BC
100
AcDbEntity
  8
AHA
100
AcDbLine
 10
104.54707
 20
169.375
 30
0.0
 11
104.54707
 21
169.375
 31
0.0
  0
LINE
  5
2BD
100
AcDbEntity
  8
AHA
100
AcDbLine
 10
103.92207
 20
169.375
 30
0.0
 11
103.92207
 21
169.375
 31
0.0
  0
LINE
  5
2BE
100
AcDbEntity
  8
AHA
100
AcDbLine
 10
104.85957
 20
170.0
 30
0.0
 11
104.85957
 21
170.0
 31
0.0
  0
LINE
  5
2BF
100
AcDbEntity
  8
AHA
100
AcDbLine
 10
104.23457
 20
170.0
 30
0.0
 11
104.23457
 21
170.0
 31
0.0
  0
LINE
  5
2C0
100
AcDbEntity
  8
AHA
100
AcDbLine
 10
103.60957
 20
170.0
 30
0.0
 11
103.60957
 21
170.0
 31
0.0
  0
LINE
  5
2C1
100
AcDbEntity
  8
AHA
100
AcDbLine
 10
104.54707
 20
170.625
 30
0.0
 11
104.54707
 21
170.625
 31
0.0
  0
LINE
  5
2C2
100
AcDbEntity
  8
AHA
100
AcDbLine
 10
103.92207
 20
170.625
 30
0.0
 11
103.92207
 21
170.625
 31
0.0
  0
LINE
  5
2C3
100
AcDbEntity
  8
AHA
100
AcDbLine
 10
104.23457
 20
171.25
 30
0.0
 11
104.23457
 21
171.25
 31
0.0
  0
LINE
  5
2C4
100
AcDbEntity
  8
AHA
100
AcDbLine
 10
103.60957
 20
171.25
 30
0.0
 11
103.60957
 21
171.25
 31
0.0
  0
ARC
  5
2C5
100
AcDbEntity
  8
1AL
100
AcDbCircle
 10
84.377306
 20
177.295275
 30
0.0
 40
0.5
100
AcDbArc
 50
0.0
 51
180.0
  0
LINE
  5
2C6
100
AcDbEntity
  8
1AL
100
AcDbLine
 10
92.877306
 20
177.295275
 30
0.0
 11
92.877306
 21
172.795275
 31
0.0
  0
LINE
  5
2C7
100
AcDbEntity
  8
1AL
100
AcDbLine
 10
92.877306
 20
177.295275
 30
0.0
 11
84.877306
 21
177.295275
 31
0.0
  0
LINE
  5
2C8
100
AcDbEntity
  8
1AL
100
AcDbLine
 10
91.877306
 20
176.295275
 30
0.0
 11
84.877306
 21
176.295275
 31
0.0
  0
ARC
  5
2C9
100
AcDbEntity
  8
1AL
100
AcDbCircle
 10
84.377306
 20
171.295275
 30
0.0
 40
0.5
100
AcDbArc
 50
180.0
 51
0.0
  0
LINE
  5
2CA
100
AcDbEntity
  8
1AL
100
AcDbLine
 10
92.877306
 20
171.795275
 30
0.0
 11
92.877306
 21
171.295275
 31
0.0
  0
ARC
  5
2CB
100
AcDbEntity
  8
1AL
100
AcDbCircle
 10
92.377306
 20
171.295275
 30
0.0
 40
0.5
100
AcDbArc
 50
180.0
 51
0.0
  0
LINE
  5
2CC
100
AcDbEntity
  8
1AL
100
AcDbLine
 10
83.877306
 20
177.295275
 30
0.0
 11
83.877306
 21
171.295275
 31
0.0
  0
LINE
  5
2CD
100
AcDbEntity
  8
1AL
100
AcDbLine
 10
91.877306
 20
176.295275
 30
0.0
 11
91.877306
 21
171.295275
 31
0.0
  0
LINE
  5
2CE
100
AcDbEntity
  8
1AL
100
AcDbLine
 10
84.877306
 20
176.295275
 30
0.0
 11
84.877306
 21
171.295275
 31
0.0
  0
LINE
  5
2CF
100
AcDbEntity
  8
1AL
100
AcDbLine
 10
103.877306
 20
172.795275
 30
0.0
 11
105.877306
 21
172.795275
 31
0.0
  0
LINE
  5
2D0
100
AcDbEntity
  8
1AL
100
AcDbLine
 10
103.877306
 20
172.795275
 30
0.0
 11
103.877306
 21
176.795275
 31
0.0
  0
LINE
  5
2D1
100
AcDbEntity
  8
1AL
100
AcDbLine
 10
102.877306
 20
172.795275
 30
0.0
 11
102.877306
 21
177.795275
 31
0.0
  0
LINE
  5
2D2
100
AcDbEntity
  8
1AL
100
AcDbLine
 10
98.877306
 20
162.545275
 30
0.0
 11
98.877306
 21
163.563225
 31
0.0
  0
ARC
  5
2D3
100
AcDbEntity
  8
1AL
100
AcDbCircle
 10
99.377306
 20
162.545275
 30
0.0
 40
0.5
100
AcDbArc
 50
180.0
 51
270.0
  0
LINE
  5
2D4
100
AcDbEntity
  8
1AL
100
AcDbLine
 10
105.577306
 20
169.795275
 30
0.0
 11
105.877306
 21
169.795275
 31
0.0
  0
LINE
  5
2D5
100
AcDbEntity
  8
1AL
100
AcDbLine
 10
104.877306
 20
170.495275
 30
0.0
 11
104.877306
 21
171.295275
 31
0.0
  0
LINE
  5
2D6
100
AcDbEntity
  8
1AL
100
AcDbLine
 10
103.877306
 20
171.295275
 30
0.0
 11
104.877306
 21
171.295275
 31
0.0
  0
ARC
  5
2D7
100
AcDbEntity
  8
1AL
100
AcDbCircle
 10
105.577306
 20
170.495275
 30
0.0
 40
0.7
100
AcDbArc
 50
180.0
 51
270.0
  0
ARC
  5
2D8
100
AcDbEntity
  8
1AL
100
AcDbCircle
 10
102.377306
 20
169.011793
 30
0.0
 40
0.5
100
AcDbArc
 50
262.337744
 51
0.0
  0
LINE
  5
2D9
100
AcDbEntity
  8
1AL
100
AcDbLine
 10
103.877306
 20
168.795275
 30
0.0
 11
103.877306
 21
171.295275
 31
0.0
  0
LINE
  5
2DA
100
AcDbEntity
  8
1AL
100
AcDbLine
 10
102.877306
 20
169.011793
 30
0.0
 11
102.877306
 21
171.795275
 31
0.0
  0
LINE
  5
2DB
100
AcDbEntity
  8
1AL
100
AcDbLine
 10
103.877306
 20
168.795275
 30
0.0
 11
104.877306
 21
167.795275
 31
0.0
  0
ARC
  5
2DC
100
AcDbEntity
  8
1AL
100
AcDbCircle
 10
102.877306
 20
161.545275
 30
0.0
 40
0.5
100
AcDbArc
 50
0.0
 51
90.0
  0
LINE
  5
2DD
100
AcDbEntity
  8
1AL
100
AcDbLine
 10
99.377306
 20
162.045275
 30
0.0
 11
102.877306
 21
162.045275
 31
0.0
  0
ARC
  5
2DE
100
AcDbEntity
  8
1AL
100
AcDbCircle
 10
101.877306
 20
165.295275
 30
0.0
 40
3.25
100
AcDbArc
 50
82.337744
 51
133.313866
  0
LINE
  5
2DF
100
AcDbEntity
  8
1AL
100
AcDbLine
 10
105.877306
 20
169.795275
 30
0.0
 11
105.877306
 21
172.795275
 31
0.0
  0
LINE
  5
2E0
100
AcDbEntity
  8
1AL
100
AcDbLine
 10
115.377306
 20
176.295275
 30
0.0
 11
115.377306
 21
176.795275
 31
0.0
  0
LINE
  5
2E1
100
AcDbEntity
  8
1AL
100
AcDbLine
 10
116.377306
 20
176.295275
 30
0.0
 11
116.377306
 21
176.795275
 31
0.0
  0
ARC
  5
2E2
100
AcDbEntity
  8
1AL
100
AcDbCircle
 10
115.877306
 20
176.295275
 30
0.0
 40
0.5
100
AcDbArc
 50
180.0
 51
0.0
  0
LINE
  5
2E3
100
AcDbEntity
  8
1AL
100
AcDbLine
 10
119.877306
 20
176.295275
 30
0.0
 11
119.877306
 21
177.795275
 31
0.0
  0
LINE
  5
2E4
100
AcDbEntity
  8
1AL
100
AcDbLine
 10
118.877306
 20
176.295275
 30
0.0
 11
118.877306
 21
176.795275
 31
0.0
  0
ARC
  5
2E5
100
AcDbEntity
  8
1AL
100
AcDbCircle
 10
119.377306
 20
176.295275
 30
0.0
 40
0.5
100
AcDbArc
 50
180.0
 51
0.0
  0
LINE
  5
2E6
100
AcDbEntity
  8
1AL
100
AcDbLine
 10
116.377306
 20
176.795275
 30
0.0
 11
118.877306
 21
176.795275
 31
0.0
  0
LINE
  5
2E7
100
AcDbEntity
  8
1AL
100
AcDbLine
 10
102.877306
 20
177.795275
 30
0.0
 11
119.877306
 21
177.795275
 31
0.0
  0
LINE
  5
2E8
100
AcDbEntity
  8
1AL
100
AcDbLine
 10
103.877306
 20
176.795275
 30
0.0
 11
115.377306
 21
176.795275
 31
0.0
  0
ARC
  5
2E9
100
AcDbEntity
  8
1AL
100
AcDbCircle
 10
99.502306
 20
158.920275
 30
0.0
 40
0.625
100
AcDbArc
 50
90.0
 51
270.0
  0
ARC
  5
2EA
100
AcDbEntity
  8
1AL
100
AcDbCircle
 10
102.877306
 20
160.045275
 30
0.0
 40
0.5
100
AcDbArc
 50
270.0
 51
0.0
  0
LINE
  5
2EB
100
AcDbEntity
  8
1AL
100
AcDbLine
 10
103.877306
 20
158.295275
 30
0.0
 11
104.877306
 21
158.295275
 31
0.0
  0
LINE
  5
2EC
100
AcDbEntity
  8
1AL
100
AcDbLine
 10
103.877306
 20
151.795275
 30
0.0
 11
104.877306
 21
151.795275
 31
0.0
  0
ARC
  5
2ED
100
AcDbEntity
  8
1AL
100
AcDbCircle
 10
102.377306
 20
152.011793
 30
0.0
 40
0.5
100
AcDbArc
 50
262.337744
 51
0.0
  0
LINE
  5
2EE
100
AcDbEntity
  8
1AL
100
AcDbLine
 10
103.877306
 20
151.795275
 30
0.0
 11
103.877306
 21
158.295275
 31
0.0
  0
LINE
  5
2EF
100
AcDbEntity
  8
1AL
100
AcDbLine
 10
102.877306
 20
152.011793
 30
0.0
 11
102.877306
 21
158.295275
 31
0.0
  0
ARC
  5
2F0
100
AcDbEntity
  8
1AL
100
AcDbCircle
 10
101.877306
 20
148.295275
 30
0.0
 40
3.25
100
AcDbArc
 50
82.337744
 51
133.313866
  0
LINE
  5
2F1
100
AcDbEntity
  8
1AL
100
AcDbLine
 10
99.502306
 20
158.295275
 30
0.0
 11
102.877306
 21
158.295275
 31
0.0
  0
LINE
  5
2F2
100
AcDbEntity
  8
1AL
100
AcDbLine
 10
99.502306
 20
159.545275
 30
0.0
 11
102.877306
 21
159.545275
 31
0.0
  0
LINE
  5
2F3
100
AcDbEntity
  8
1AL
100
AcDbLine
 10
98.877306
 20
145.545275
 30
0.0
 11
98.877306
 21
146.563225
 31
0.0
  0
ARC
  5
2F4
100
AcDbEntity
  8
1AL
100
AcDbCircle
 10
99.377306
 20
145.545275
 30
0.0
 40
0.5
100
AcDbArc
 50
180.0
 51
270.0
  0
ARC
  5
2F5
100
AcDbEntity
  8
1AL
100
AcDbCircle
 10
99.502306
 20
141.920275
 30
0.0
 40
0.625
100
AcDbArc
 50
90.0
 51
270.0
  0
ARC
  5
2F6
100
AcDbEntity
  8
1AL
100
AcDbCircle
 10
102.877306
 20
144.545275
 30
0.0
 40
0.5
100
AcDbArc
 50
0.0
 51
90.0
  0
LINE
  5
2F7
100
AcDbEntity
  8
1AL
100
AcDbLine
 10
103.877306
 20
137.795275
 30
0.0
 11
103.877306
 21
141.295275
 31
0.0
  0
LINE
  5
2F8
100
AcDbEntity
  8
1AL
100
AcDbLine
 10
103.877306
 20
141.295275
 30
0.0
 11
104.877306
 21
141.295275
 31
0.0
  0
ARC
  5
2F9
100
AcDbEntity
  8
1AL
100
AcDbCircle
 10
102.877306
 20
143.045275
 30
0.0
 40
0.5
100
AcDbArc
 50
270.0
 51
0.0
  0
LINE
  5
2FA
100
AcDbEntity
  8
1AL
100
AcDbLine
 10
103.377306
 20
143.045275
 30
0.0
 11
103.377306
 21
144.545275
 31
0.0
  0
LINE
  5
2FB
100
AcDbEntity
  8
1AL
100
AcDbLine
 10
99.502306
 20
141.295275
 30
0.0
 11
102.877306
 21
141.295275
 31
0.0
  0
LINE
  5
2FC
100
AcDbEntity
  8
1AL
100
AcDbLine
 10
99.502306
 20
142.545275
 30
0.0
 11
102.877306
 21
142.545275
 31
0.0
  0
LINE
  5
2FD
100
AcDbEntity
  8
1AL
100
AcDbLine
 10
99.377306
 20
145.045275
 30
0.0
 11
102.877306
 21
145.045275
 31
0.0
  0
LINE
  5
2FE
100
AcDbEntity
  8
1AL
100
AcDbLine
 10
104.877306
 20
141.295275
 30
0.0
 11
104.877306
 21
151.795275
 31
0.0
  0
LINE
  5
2FF
100
AcDbEntity
  8
1AL
100
AcDbLine
 10
104.877306
 20
158.295275
 30
0.0
 11
104.877306
 21
167.795275
 31
0.0
  0
LINE
  5
300
100
AcDbEntity
  8
1AL
100
AcDbLine
 10
103.377306
 20
160.045275
 30
0.0
 11
103.377306
 21
161.545275
 31
0.0
  0
LINE
  5
301
100
AcDbEntity
  8
1AL
100
AcDbLine
 10
102.877306
 20
136.795275
 30
0.0
 11
102.877306
 21
136.795275
 31
0.0
  0
LINE
  5
302
100
AcDbEntity
  8
1AL
100
AcDbLine
 10
102.877306
 20
136.795275
 30
0.0
 11
102.877306
 21
141.295275
 31
0.0
  0
ARC
  5
303
100
AcDbEntity
  8
1AL
100
AcDbCircle
 10
102.877306
 20
137.795275
 30
0.0
 40
1.0
100
AcDbArc
 50
270.0
 51
0.0
  0
LINE
  5
304
100
AcDbEntity
  8
1AL
100
AcDbLine
 10
102.877306
 20
172.795275
 30
0.0
 11
92.877306
 21
172.795275
 31
0.0
  0
LINE
  5
305
100
AcDbEntity
  8
1AL
100
AcDbLine
 10
102.877306
 20
171.795275
 30
0.0
 11
92.877306
 21
171.795275
 31
0.0
  0
ARC
  5
306
100
AcDbEntity
  8
1AL
100
AcDbCircle
 10
335.958862
 20
177.295275
 30
0.0
 40
0.5
100
AcDbArc
 50
360.0
 51
180.0
  0
LINE
  5
307
100
AcDbEntity
  8
1AL
100
AcDbLine
 10
327.458862
 20
177.295275
 30
0.0
 11
327.458862
 21
172.795275
 31
0.0
  0
LINE
  5
308
100
AcDbEntity
  8
1AL
100
AcDbLine
 10
327.458862
 20
177.295275
 30
0.0
 11
335.458862
 21
177.295275
 31
0.0
  0
LINE
  5
309
100
AcDbEntity
  8
1AL
100
AcDbLine
 10
328.458862
 20
176.295275
 30
0.0
 11
335.458862
 21
176.295275
 31
0.0
  0
ARC
  5
30A
100
AcDbEntity
  8
1AL
100
AcDbCircle
 10
335.958862
 20
171.295275
 30
0.0
 40
0.5
100
AcDbArc
 50
180.0
 51
360.0
  0
LINE
  5
30B
100
AcDbEntity
  8
1AL
100
AcDbLine
 10
327.458862
 20
171.795275
 30
0.0
 11
327.458862
 21
171.295275
 31
0.0
  0
ARC
  5
30C
100
AcDbEntity
  8
1AL
100
AcDbCircle
 10
327.958862
 20
171.295275
 30
0.0
 40
0.5
100
AcDbArc
 50
180.0
 51
360.0
  0
LINE
  5
30D
100
AcDbEntity
  8
1AL
100
AcDbLine
 10
336.458862
 20
177.295275
 30
0.0
 11
336.458862
 21
171.295275
 31
0.0
  0
LINE
  5
30E
100
AcDbEntity
  8
1AL
100
AcDbLine
 10
328.458862
 20
176.295275
 30
0.0
 11
328.458862
 21
171.295275
 31
0.0
  0
LINE
  5
30F
100
AcDbEntity
  8
1AL
100
AcDbLine
 10
335.458862
 20
176.295275
 30
0.0
 11
335.458862
 21
171.295275
 31
0.0
  0
LINE
  5
310
100
AcDbEntity
  8
1AL
100
AcDbLine
 10
316.458862
 20
172.795275
 30
0.0
 11
314.458862
 21
172.795275
 31
0.0
  0
LINE
  5
311
100
AcDbEntity
  8
1AL
100
AcDbLine
 10
316.458862
 20
172.795275
 30
0.0
 11
316.458862
 21
176.795275
 31
0.0
  0
LINE
  5
312
100
AcDbEntity
  8
1AL
100
AcDbLine
 10
317.458862
 20
172.795275
 30
0.0
 11
317.458862
 21
177.795275
 31
0.0
  0
LINE
  5
313
100
AcDbEntity
  8
1AL
100
AcDbLine
 10
321.458862
 20
162.545275
 30
0.0
 11
321.458862
 21
163.563225
 31
0.0
  0
ARC
  5
314
100
AcDbEntity
  8
1AL
100
AcDbCircle
 10
320.958862
 20
162.545275
 30
0.0
 40
0.5
100
AcDbArc
 50
270.0
 51
360.0
  0
LINE
  5
315
100
AcDbEntity
  8
1AL
100
AcDbLine
 10
314.758862
 20
169.795275
 30
0.0
 11
314.458862
 21
169.795275
 31
0.0
  0
LINE
  5
316
100
AcDbEntity
  8
1AL
100
AcDbLine
 10
315.458862
 20
170.495275
 30
0.0
 11
315.458862
 21
171.295275
 31
0.0
  0
LINE
  5
317
100
AcDbEntity
  8
1AL
100
AcDbLine
 10
316.458862
 20
171.295275
 30
0.0
 11
315.458862
 21
171.295275
 31
0.0
  0
ARC
  5
318
100
AcDbEntity
  8
1AL
100
AcDbCircle
 10
314.758862
 20
170.495275
 30
0.0
 40
0.7
100
AcDbArc
 50
270.0
 51
360.0
  0
ARC
  5
319
100
AcDbEntity
  8
1AL
100
AcDbCircle
 10
317.958862
 20
169.011793
 30
0.0
 40
0.5
100
AcDbArc
 50
180.0
 51
277.662256
  0
LINE
  5
31A
100
AcDbEntity
  8
1AL
100
AcDbLine
 10
316.458862
 20
168.795275
 30
0.0
 11
316.458862
 21
171.295275
 31
0.0
  0
LINE
  5
31B
100
AcDbEntity
  8
1AL
100
AcDbLine
 10
317.458862
 20
169.011793
 30
0.0
 11
317.458862
 21
171.795275
 31
0.0
  0
LINE
  5
31C
100
AcDbEntity
  8
1AL
100
AcDbLine
 10
316.458862
 20
168.795275
 30
0.0
 11
315.458862
 21
167.795275
 31
0.0
  0
ARC
  5
31D
100
AcDbEntity
  8
1AL
100
AcDbCircle
 10
317.458862
 20
161.545275
 30
0.0
 40
0.5
100
AcDbArc
 50
90.0
 51
180.0
  0
LINE
  5
31E
100
AcDbEntity
  8
1AL
100
AcDbLine
 10
320.958862
 20
162.045275
 30
0.0
 11
317.458862
 21
162.045275
 31
0.0
  0
ARC
  5
31F
100
AcDbEntity
  8
1AL
100
AcDbCircle
 10
318.458862
 20
165.295275
 30
0.0
 40
3.25
100
AcDbArc
 50
46.686134
 51
97.662256
  0
LINE
  5
320
100
AcDbEntity
  8
1AL
100
AcDbLine
 10
314.458862
 20
169.795275
 30
0.0
 11
314.458862
 21
172.795275
 31
0.0
  0
LINE
  5
321
100
AcDbEntity
  8
1AL
100
AcDbLine
 10
304.958862
 20
176.295275
 30
0.0
 11
304.958862
 21
176.795275
 31
0.0
  0
LINE
  5
322
100
AcDbEntity
  8
1AL
100
AcDbLine
 10
303.958862
 20
176.295275
 30
0.0
 11
303.958862
 21
176.795275
 31
0.0
  0
ARC
  5
323
100
AcDbEntity
  8
1AL
100
AcDbCircle
 10
304.458862
 20
176.295275
 30
0.0
 40
0.5
100
AcDbArc
 50
180.0
 51
360.0
  0
LINE
  5
324
100
AcDbEntity
  8
1AL
100
AcDbLine
 10
300.458862
 20
176.295275
 30
0.0
 11
300.458862
 21
177.795275
 31
0.0
  0
LINE
  5
325
100
AcDbEntity
  8
1AL
100
AcDbLine
 10
301.458862
 20
176.295275
 30
0.0
 11
301.458862
 21
176.795275
 31
0.0
  0
ARC
  5
326
100
AcDbEntity
  8
1AL
100
AcDbCircle
 10
300.958862
 20
176.295275
 30
0.0
 40
0.5
100
AcDbArc
 50
180.0
 51
360.0
  0
LINE
  5
327
100
AcDbEntity
  8
1AL
100
AcDbLine
 10
303.958862
 20
176.795275
 30
0.0
 11
301.458862
 21
176.795275
 31
0.0
  0
LINE
  5
328
100
AcDbEntity
  8
1AL
100
AcDbLine
 10
317.458862
 20
177.795275
 30
0.0
 11
300.458862
 21
177.795275
 31
0.0
  0
LINE
  5
329
100
AcDbEntity
  8
1AL
100
AcDbLine
 10
316.458862
 20
176.795275
 30
0.0
 11
304.958862
 21
176.795275
 31
0.0
  0
ARC
  5
32A
100
AcDbEntity
  8
1AL
100
AcDbCircle
 10
320.833862
 20
158.920275
 30
0.0
 40
0.625
100
AcDbArc
 50
270.0
 51
90.0
  0
ARC
  5
32B
100
AcDbEntity
  8
1AL
100
AcDbCircle
 10
317.458862
 20
160.045275
 30
0.0
 40
0.5
100
AcDbArc
 50
180.0
 51
270.0
  0
LINE
  5
32C
100
AcDbEntity
  8
1AL
100
AcDbLine
 10
316.458862
 20
158.295275
 30
0.0
 11
315.458862
 21
158.295275
 31
0.0
  0
LINE
  5
32D
100
AcDbEntity
  8
1AL
100
AcDbLine
 10
316.458862
 20
151.795275
 30
0.0
 11
315.458862
 21
151.795275
 31
0.0
  0
ARC
  5
32E
100
AcDbEntity
  8
1AL
100
AcDbCircle
 10
317.958862
 20
152.011793
 30
0.0
 40
0.5
100
AcDbArc
 50
180.0
 51
277.662256
  0
LINE
  5
32F
100
AcDbEntity
  8
1AL
100
AcDbLine
 10
316.458862
 20
151.795275
 30
0.0
 11
316.458862
 21
158.295275
 31
0.0
  0
LINE
  5
330
100
AcDbEntity
  8
1AL
100
AcDbLine
 10
317.458862
 20
152.011793
 30
0.0
 11
317.458862
 21
158.295275
 31
0.0
  0
ARC
  5
331
100
AcDbEntity
  8
1AL
100
AcDbCircle
 10
318.458862
 20
148.295275
 30
0.0
 40
3.25
100
AcDbArc
 50
46.686134
 51
97.662256
  0
LINE
  5
332
100
AcDbEntity
  8
1AL
100
AcDbLine
 10
320.833862
 20
158.295275
 30
0.0
 11
317.458862
 21
158.295275
 31
0.0
  0
LINE
  5
333
100
AcDbEntity
  8
1AL
100
AcDbLine
 10
320.833862
 20
159.545275
 30
0.0
 11
317.458862
 21
159.545275
 31
0.0
  0
LINE
  5
334
100
AcDbEntity
  8
1AL
100
AcDbLine
 10
321.458862
 20
145.545275
 30
0.0
 11
321.458862
 21
146.563225
 31
0.0
  0
ARC
  5
335
100
AcDbEntity
  8
1AL
100
AcDbCircle
 10
320.958862
 20
145.545275
 30
0.0
 40
0.5
100
AcDbArc
 50
270.0
 51
360.0
  0
ARC
  5
336
100
AcDbEntity
  8
1AL
100
AcDbCircle
 10
320.833862
 20
141.920275
 30
0.0
 40
0.625
100
AcDbArc
 50
270.0
 51
90.0
  0
ARC
  5
337
100
AcDbEntity
  8
1AL
100
AcDbCircle
 10
317.458862
 20
144.545275
 30
0.0
 40
0.5
100
AcDbArc
 50
90.0
 51
180.0
  0
LINE
  5
338
100
AcDbEntity
  8
1AL
100
AcDbLine
 10
316.458862
 20
137.795275
 30
0.0
 11
316.458862
 21
141.295275
 31
0.0
  0
LINE
  5
339
100
AcDbEntity
  8
1AL
100
AcDbLine
 10
316.458862
 20
141.295275
 30
0.0
 11
315.458862
 21
141.295275
 31
0.0
  0
ARC
  5
33A
100
AcDbEntity
  8
1AL
100
AcDbCircle
 10
317.458862
 20
143.045275
 30
0.0
 40
0.5
100
AcDbArc
 50
180.0
 51
270.0
  0
LINE
  5
33B
100
AcDbEntity
  8
1AL
100
AcDbLine
 10
316.958862
 20
143.045275
 30
0.0
 11
316.958862
 21
144.545275
 31
0.0
  0
LINE
  5
33C
100
AcDbEntity
  8
1AL
100
AcDbLine
 10
320.833862
 20
141.295275
 30
0.0
 11
317.458862
 21
141.295275
 31
0.0
  0
LINE
  5
33D
100
AcDbEntity
  8
1AL
100
AcDbLine
 10
320.833862
 20
142.545275
 30
0.0
 11
317.458862
 21
142.545275
 31
0.0
  0
LINE
  5
33E
100
AcDbEntity
  8
1AL
100
AcDbLine
 10
320.958862
 20
145.045275
 30
0.0
 11
317.458862
 21
145.045275
 31
0.0
  0
LINE
  5
33F
100
AcDbEntity
  8
1AL
100
AcDbLine
 10
315.458862
 20
141.295275
 30
0.0
 11
315.458862
 21
151.795275
 31
0.0
  0
LINE
  5
340
100
AcDbEntity
  8
1AL
100
AcDbLine
 10
315.458862
 20
158.295275
 30
0.0
 11
315.458862
 21
167.795275
 31
0.0
  0
LINE
  5
341
100
AcDbEntity
  8
1AL
100
AcDbLine
 10
316.958862
 20
160.045275
 30
0.0
 11
316.958862
 21
161.545275
 31
0.0
  0
LINE
  5
342
100
AcDbEntity
  8
1AL
100
AcDbLine
 10
317.458862
 20
136.795275
 30
0.0
 11
317.458862
 21
136.795275
 31
0.0
  0
LINE
  5
343
100
AcDbEntity
  8
1AL
100
AcDbLine
 10
317.458862
 20
136.795275
 30
0.0
 11
317.458862
 21
141.295275
 31
0.0
  0
ARC
  5
344
100
AcDbEntity
  8
1AL
100
AcDbCircle
 10
317.458862
 20
137.795275
 30
0.0
 40
1.0
100
AcDbArc
 50
180.0
 51
270.0
  0
LINE
  5
345
100
AcDbEntity
  8
1AL
100
AcDbLine
 10
317.458862
 20
172.795275
 30
0.0
 11
327.458862
 21
172.795275
 31
0.0
  0
LINE
  5
346
100
AcDbEntity
  8
1AL
100
AcDbLine
 10
317.458862
 20
171.795275
 30
0.0
 11
327.458862
 21
171.795275
 31
0.0
  0
POINT
  5
347
100
AcDbEntity
  8
DEFPOINTS
 62
     0
100
AcDbPoint
 10
379.241589
 20
135.795275
 30
0.0
  0
POINT
  5
348
100
AcDbEntity
  8
DEFPOINTS
 62
     0
100
AcDbPoint
 10
321.958862
 20
135.795275
 30
0.0
  0
POINT
  5
349
100
AcDbEntity
  8
DEFPOINTS
 62
     0
100
AcDbPoint
 10
364.458862
 20
170.795275
 30
0.0
  0
LINE
  5
34A
100
AcDbEntity
  8
ALS
 62
     0
100
AcDbLine
 10
379.241589
 20
169.795275
 30
0.0
 11
379.241589
 21
136.795275
 31
0.0
1001
ACAD
1000
RTLwPs
1070
   158
  0
LINE
  5
34B
100
AcDbEntity
  8
ALS
 62
     0
100
AcDbLine
 10
323.958862
 20
135.795275
 30
0.0
 11
380.441589
 21
135.795275
 31
0.0
1001
ACAD
1000
RTLwPs
1070
   158
  0
LINE
  5
34C
100
AcDbEntity
  8
ALS
 62
     0
100
AcDbLine
 10
366.458862
 20
170.795275
 30
0.0
 11
380.441589
 21
170.795275
 31
0.0
1001
ACAD
1000
RTLwPs
1070
   158
  0
LINE
  5
34D
100
AcDbEntity
  8
1BUHIN
  6
HIDDEN
 48
0.5
100
AcDbLine
 10
336.197103
 20
178.742905
 30
0.0
 11
326.378926
 21
178.742905
 31
0.0
  0
LINE
  5
350
100
AcDbEntity
  8
1BUHIN
  6
HIDDEN
 48
0.5
100
AcDbLine
 10
344.458862
 20
180.838929
 30
0.0
 11
336.197103
 21
178.742905
 31
0.0
  0
LINE
  5
351
100
AcDbEntity
  8
1BUHIN
  6
HIDDEN
 48
0.5
100
AcDbLine
 10
385.269526
 20
180.838929
 30
0.0
 11
344.458862
 21
180.838929
 31
0.0
  0
LINE
  5
352
100
AcDbEntity
  8
1BUHIN
  6
HIDDEN
 48
0.5
100
AcDbLine
 10
336.197103
 20
178.153906
 30
0.0
 11
326.378926
 21
178.153906
 31
0.0
  0
LINE
  5
353
100
AcDbEntity
  8
1BUHIN
  6
HIDDEN
 48
0.5
100
AcDbLine
 10
344.458862
 20
180.24993
 30
0.0
 11
336.197103
 21
178.153906
 31
0.0
  0
LINE
  5
354
100
AcDbEntity
  8
1BUHIN
  6
HIDDEN
 48
0.5
100
AcDbLine
 10
357.938991
 20
180.24993
 30
0.0
 11
344.458862
 21
180.24993
 31
0.0
  0
LINE
  5
355
100
AcDbEntity
  8
1BUHIN
  6
HIDDEN
 48
0.5
100
AcDbLine
 10
84.139065
 20
178.742905
 30
0.0
 11
93.786375
 21
178.742905
 31
0.0
  0
LINE
  5
356
100
AcDbEntity
  8
1BUHIN
  6
HIDDEN
 48
0.5
100
AcDbLine
 10
75.877306
 20
180.838929
 30
0.0
 11
84.139065
 21
178.742905
 31
0.0
  0
LINE
  5
357
100
AcDbEntity
  8
1BUHIN
  6
HIDDEN
 48
0.5
100
AcDbLine
 10
35.066641
 20
180.838929
 30
0.0
 11
75.877306
 21
180.838929
 31
0.0
  0
LINE
  5
358
100
AcDbEntity
  8
1BUHIN
  6
HIDDEN
 48
0.5
100
AcDbLine
 10
84.139065
 20
178.153906
 30
0.0
 11
93.786375
 21
178.153906
 31
0.0
  0
LINE
  5
359
100
AcDbEntity
  8
1BUHIN
  6
HIDDEN
 48
0.5
100
AcDbLine
 10
75.877306
 20
180.24993
 30
0.0
 11
84.139065
 21
178.153906
 31
0.0
  0
LINE
  5
35A
100
AcDbEntity
  8
1BUHIN
  6
HIDDEN
 48
0.5
100
AcDbLine
 10
62.397176
 20
180.24993
 30
0.0
 11
75.877306
 21
180.24993
 31
0.0
  0
LINE
  5
35B
100
AcDbEntity
  8
ACL
  6
CENTER
100
AcDbLine
 10
321.612845
 20
143.795275
 30
0.0
 11
309.551808
 21
143.795275
 31
0.0
  0
LINE
  5
35E
100
AcDbEntity
  8
ACL
  6
CENTER
100
AcDbLine
 10
321.862813
 20
148.295275
 30
0.0
 11
313.613815
 21
148.295275
 31
0.0
  0
LINE
  5
35F
100
AcDbEntity
  8
ACL
  6
CENTER
100
AcDbLine
 10
321.612845
 20
160.795275
 30
0.0
 11
309.551808
 21
160.795275
 31
0.0
  0
LINE
  5
360
100
AcDbEntity
  8
ACL
  6
CENTER
100
AcDbLine
 10
318.458862
 20
145.045275
 30
0.0
 11
318.458862
 21
170.135737
 31
0.0
  0
LINE
  5
361
100
AcDbEntity
  8
ACL
  6
CENTER
100
AcDbLine
 10
314.120865
 20
165.295275
 30
0.0
 11
322.362753
 21
165.295275
 31
0.0
  0
LINE
  5
362
100
AcDbEntity
  8
ACL
  6
CENTER
100
AcDbLine
 10
106.215302
 20
165.295275
 30
0.0
 11
97.973415
 21
165.295275
 31
0.0
  0
LINE
  5
363
100
AcDbEntity
  8
ACL
  6
CENTER
100
AcDbLine
 10
98.723323
 20
160.795275
 30
0.0
 11
110.78436
 21
160.795275
 31
0.0
  0
LINE
  5
364
100
AcDbEntity
  8
ACL
  6
CENTER
100
AcDbLine
 10
101.877306
 20
145.045275
 30
0.0
 11
101.877306
 21
170.135737
 31
0.0
  0
LINE
  5
365
100
AcDbEntity
  8
ACL
  6
CENTER
100
AcDbLine
 10
98.473354
 20
148.295275
 30
0.0
 11
106.722353
 21
148.295275
 31
0.0
  0
LINE
  5
366
100
AcDbEntity
  8
ACL
  6
CENTER
100
AcDbLine
 10
98.723323
 20
143.795275
 30
0.0
 11
110.78436
 21
143.795275
 31
0.0
  0
TEXT
  5
367
100
AcDbEntity
  8
ADM
100
AcDbText
 10
385.226357
 20
5.368937
 30
0.0
 40
2.5
  1
総数
 41
0.8
 72
     1
 11
387.35969
 21
5.368937
 31
0.0
100
AcDbText
  0
TEXT
  5
369
100
AcDbEntity
  8
ADM
100
AcDbText
 10
385.029135
 20
1.728182
 30
0.0
 40
2.0
  1
7/36 葉
 41
0.8
 72
     1
 11
389.493897
 21
1.728182
 31
0.0
100
AcDbText
  0
LINE
  5
36A
100
AcDbEntity
  8
ALS
100
AcDbLine
 10
207.668084
 20
80.795275
 30
0.0
 11
324.458862
 21
80.795275
 31
0.0
  0
LINE
  5
36B
100
AcDbEntity
  8
ALS
100
AcDbLine
 10
207.668084
 20
80.795275
 30
0.0
 11
95.877306
 21
80.795275
 31
0.0
  0
LINE
  5
36C
100
AcDbEntity
  8
1MOKU
100
AcDbLine
 10
364.458862
 20
80.795275
 30
0.0
 11
324.458862
 21
80.795275
 31
0.0
  0
LINE
  5
36E
100
AcDbEntity
  8
1BUHIN
100
AcDbLine
 10
310.458862
 20
175.795275
 30
0.0
 11
310.458862
 21
173.795275
 31
0.0
  0
LINE
  5
36F
100
AcDbEntity
  8
ALS
100
AcDbLine
 10
318.458862
 20
177.795275
 30
0.0
 11
318.458862
 21
172.795275
 31
0.0
  0
LINE
  5
370
100
AcDbEntity
  8
1BUHIN
100
AcDbLine
 10
210.168084
 20
173.795275
 30
0.0
 11
310.458862
 21
173.795275
 31
0.0
  0
LINE
  5
371
100
AcDbEntity
  8
ALS
100
AcDbLine
 10
210.168084
 20
177.795275
 30
0.0
 11
300.458862
 21
177.795275
 31
0.0
  0
LINE
  5
372
100
AcDbEntity
  8
1BUHIN
100
AcDbLine
 10
210.168084
 20
175.795275
 30
0.0
 11
310.458862
 21
175.795275
 31
0.0
  0
LINE
  5
373
100
AcDbEntity
  8
ALS
100
AcDbLine
 10
210.168084
 20
177.795275
 30
0.0
 11
318.458862
 21
177.795275
 31
0.0
  0
LINE
  5
374
100
AcDbEntity
  8
1MOKU
100
AcDbLine
 10
344.458862
 20
179.795275
 30
0.0
 11
384.951623
 21
179.795275
 31
0.0
  0
LINE
  5
375
100
AcDbEntity
  8
ALS
100
AcDbLine
 10
326.458862
 20
177.795275
 30
0.0
 11
326.458862
 21
172.795275
 31
0.0
  0
LINE
  5
376
100
AcDbEntity
  8
ALS
100
AcDbLine
 10
326.458862
 20
177.795275
 30
0.0
 11
336.458862
 21
177.795275
 31
0.0
  0
LINE
  5
377
100
AcDbEntity
  8
ALS
100
AcDbLine
 10
321.958862
 20
170.795275
 30
0.0
 11
321.958862
 21
135.795275
 31
0.0
  0
LINE
  5
378
100
AcDbEntity
  8
ALS
100
AcDbLine
 10
321.958862
 20
170.795275
 30
0.0
 11
365.458862
 21
170.795275
 31
0.0
  0
LINE
  5
379
100
AcDbEntity
  8
1MOKU
100
AcDbLine
 10
325.958862
 20
170.795275
 30
0.0
 11
365.958862
 21
170.795275
 31
0.0
  0
LINE
  5
37A
100
AcDbEntity
  8
ACL
  6
CENTER2
100
AcDbLine
 10
331.458862
 20
180.554013
 30
0.0
 11
331.458862
 21
144.485524
 31
0.0
  0
LINE
  5
37C
100
AcDbEntity
  8
ALS
100
AcDbLine
 10
336.458862
 20
180.795275
 30
0.0
 11
336.458862
 21
170.795275
 31
0.0
  0
LINE
  5
37D
100
AcDbEntity
  8
1MOKU
100
AcDbLine
 10
341.958862
 20
170.795275
 30
0.0
 11
386.639451
 21
170.795275
 31
0.0
  0
LINE
  5
37E
100
AcDbEntity
  8
ALS
100
AcDbLine
 10
210.168084
 20
135.795275
 30
0.0
 11
321.958862
 21
135.795275
 31
0.0
  0
LINE
  5
37F
100
AcDbEntity
  8
ALS
100
AcDbLine
 10
210.168084
 20
180.795275
 30
0.0
 11
336.458862
 21
180.795275
 31
0.0
  0
LINE
  5
380
100
AcDbEntity
  8
ACL
  6
CENTER2
100
AcDbLine
 10
210.168084
 20
187.009969
 30
0.0
 11
210.168084
 21
66.467588
 31
0.0
  0
LINE
  5
381
100
AcDbEntity
  8
ALS
100
AcDbLine
 10
364.458862
 20
170.795275
 30
0.0
 11
324.458862
 21
80.795275
 31
0.0
  0
LINE
  5
382
100
AcDbEntity
  8
ALS
100
AcDbLine
 10
324.458862
 20
170.795275
 30
0.0
 11
364.458862
 21
80.795275
 31
0.0
  0
LINE
  5
383
100
AcDbEntity
  8
1MOKU
100
AcDbLine
 10
364.458862
 20
170.795275
 30
0.0
 11
364.458862
 21
80.795275
 31
0.0
  0
LINE
  5
384
100
AcDbEntity
  8
1MOKU
100
AcDbLine
 10
324.458862
 20
170.795275
 30
0.0
 11
324.458862
 21
80.795275
 31
0.0
  0
LINE
  5
385
100
AcDbEntity
  8
ACL
  6
CENTER2
100
AcDbLine
 10
344.458862
 20
190.554469
 30
0.0
 11
344.458862
 21
73.743181
 31
0.0
  0
LINE
  5
386
100
AcDbEntity
  8
ALS
100
AcDbLine
 10
93.877306
 20
177.795275
 30
0.0
 11
83.877306
 21
177.795275
 31
0.0
  0
LINE
  5
387
100
AcDbEntity
  8
ALS
100
AcDbLine
 10
101.877306
 20
177.795275
 30
0.0
 11
101.877306
 21
172.795275
 31
0.0
  0
LINE
  5
388
100
AcDbEntity
  8
ALS
100
AcDbLine
 10
210.168084
 20
177.795275
 30
0.0
 11
101.877306
 21
177.795275
 31
0.0
  0
LINE
  5
389
100
AcDbEntity
  8
1MOKU
100
AcDbLine
 10
94.377306
 20
170.795275
 30
0.0
 11
54.377306
 21
170.795275
 31
0.0
  0
LINE
  5
38A
100
AcDbEntity
  8
ALS
100
AcDbLine
 10
83.877306
 20
180.795275
 30
0.0
 11
83.877306
 21
170.795275
 31
0.0
  0
LINE
  5
38B
100
AcDbEntity
  8
ALS
100
AcDbLine
 10
210.168084
 20
135.795275
 30
0.0
 11
98.377306
 21
135.795275
 31
0.0
  0
LINE
  5
38C
100
AcDbEntity
  8
ALS
100
AcDbLine
 10
210.168084
 20
180.795275
 30
0.0
 11
83.877306
 21
180.795275
 31
0.0
  0
LINE
  5
38D
100
AcDbEntity
  8
ALS
100
AcDbLine
 10
93.877306
 20
177.795275
 30
0.0
 11
93.877306
 21
172.795275
 31
0.0
  0
LINE
  5
38E
100
AcDbEntity
  8
ALS
100
AcDbLine
 10
98.377306
 20
170.795275
 30
0.0
 11
98.377306
 21
135.795275
 31
0.0
  0
LINE
  5
38F
100
AcDbEntity
  8
1BUHIN
100
AcDbLine
 10
109.877306
 20
175.795275
 30
0.0
 11
109.877306
 21
173.795275
 31
0.0
  0
LINE
  5
390
100
AcDbEntity
  8
ACL
  6
CENTER2
100
AcDbLine
 10
88.877306
 20
180.554013
 30
0.0
 11
88.877306
 21
144.485524
 31
0.0
  0
LINE
  5
391
100
AcDbEntity
  8
ALS
100
AcDbLine
 10
98.377306
 20
170.795275
 30
0.0
 11
54.877306
 21
170.795275
 31
0.0
  0
LINE
  5
392
100
AcDbEntity
  8
1BUHIN
100
AcDbLine
 10
210.168084
 20
175.795275
 30
0.0
 11
109.877306
 21
175.795275
 31
0.0
  0
LINE
  5
393
100
AcDbEntity
  8
ALS
100
AcDbLine
 10
210.168084
 20
177.795275
 30
0.0
 11
119.877306
 21
177.795275
 31
0.0
  0
LINE
  5
394
100
AcDbEntity
  8
1BUHIN
100
AcDbLine
 10
210.168084
 20
173.795275
 30
0.0
 11
109.877306
 21
173.795275
 31
0.0
  0
LINE
  5
395
100
AcDbEntity
  8
1MOKU
100
AcDbLine
 10
75.877306
 20
179.795275
 30
0.0
 11
35.384544
 21
179.795275
 31
0.0
  0
LINE
  5
396
100
AcDbEntity
  8
1MOKU
100
AcDbLine
 10
78.377306
 20
170.795275
 30
0.0
 11
33.696716
 21
170.795275
 31
0.0
  0
LINE
  5
397
100
AcDbEntity
  8
1MOKU
100
AcDbLine
 10
95.877306
 20
80.795275
 30
0.0
 11
55.877306
 21
80.795275
 31
0.0
  0
LINE
  5
398
100
AcDbEntity
  8
1MOKU
100
AcDbLine
 10
95.877306
 20
170.795275
 30
0.0
 11
95.877306
 21
80.795275
 31
0.0
  0
LINE
  5
399
100
AcDbEntity
  8
1MOKU
100
AcDbLine
 10
55.877306
 20
170.795275
 30
0.0
 11
55.877306
 21
80.795275
 31
0.0
  0
LINE
  5
39A
100
AcDbEntity
  8
ALS
100
AcDbLine
 10
95.877306
 20
170.795275
 30
0.0
 11
55.877306
 21
80.795275
 31
0.0
  0
LINE
  5
39B
100
AcDbEntity
  8
ALS
100
AcDbLine
 10
55.877306
 20
170.795275
 30
0.0
 11
95.877306
 21
80.795275
 31
0.0
  0
LINE
  5
39C
100
AcDbEntity
  8
ACL
  6
CENTER2
100
AcDbLine
 10
75.877306
 20
190.554469
 30
0.0
 11
75.877306
 21
73.743181
 31
0.0
  0
LINE
  5
39D
100
AcDbEntity
  8
ACL
  6
CENTER2
100
AcDbLine
 10
210.168084
 20
187.009969
 30
0.0
 11
210.168084
 21
66.467588
 31
0.0
  0
TEXT
  5
39E
100
AcDbEntity
  8
ADM
100
AcDbText
 10
340.799035
 20
1.232009
 30
0.0
 40
2.25
  1
白井
 41
0.8
 72
     1
 11
342.839035
 21
1.232009
 31
0.0
100
AcDbText
  0
TEXT
  5
39F
100
AcDbEntity
  8
ADM
100
AcDbText
 10
364.43496
 20
0.837169
 30
0.0
 40
1.5
  1
15
 41
0.8
 72
     1
 11
365.663531
 21
0.837169
 31
0.0
100
AcDbText
  0
TEXT
  5
3A0
100
AcDbEntity
  8
ADM
100
AcDbText
 10
360.303647
 20
0.837169
 30
0.0
 40
1.5
  1
5
 41
0.8
 72
     1
 11
360.875075
 21
0.837169
 31
0.0
100
AcDbText
  0
TEXT
  5
3A1
100
AcDbEntity
  8
ADM
100
AcDbText
 10
225.261745
 20
1.355293
 30
0.0
 40
2.5
  1
横断面　納まり図
 41
0.8
 72
     1
 11
234.528412
 21
1.355293
 31
0.0
100
AcDbText
  0
TEXT
  5
3A2
100
AcDbEntity
  8
ADM
100
AcDbText
 10
282.928412
 20
1.355293
 30
0.0
 40
2.5
  1
ガラス瓦下地ユニット
 41
0.8
 72
     1
 11
294.528412
 21
1.355293
 31
0.0
100
AcDbText
  0
TEXT
  5
3A3
100
AcDbEntity
  8
ADM
100
AcDbText
 10
286.328412
 20
9.355293
 30
0.0
 40
2.5
  1
ダウンロード用
 41
0.8
 72
     1
 11
294.528412
 21
9.355293
 31
0.0
100
AcDbText
  0
TEXT
  5
3A4
100
AcDbEntity
  8
ADM
100
AcDbText
 10
325.113496
 20
0.676257
 30
0.0
 40
2.0
  1
A-152-03
 41
0.8
 72
     1
 11
331.513496
 21
0.676257
 31
0.0
100
AcDbText
  0
TEXT
  5
3A5
100
AcDbEntity
  8
ADM
100
AcDbText
 10
354.372697
 20
0.837169
 30
0.0
 40
1.5
  1
H15
 41
0.8
100
AcDbText
  0
TEXT
  5
3A6
100
AcDbEntity
  8
ADM
100
AcDbText
 10
358.086359
 20
0.792069
 30
0.0
 40
1.25
  1
年
 72
     1
 11
358.669692
 21
0.792069
 31
0.0
100
AcDbText
  0
TEXT
  5
3A7
100
AcDbEntity
  8
ADM
100
AcDbText
 10
362.562868
 20
0.792069
 30
0.0
 40
1.25
  1
月
 72
     1
 11
363.062868
 21
0.792069
 31
0.0
100
AcDbText
  0
TEXT
  5
3A8
100
AcDbEntity
  8
ADM
100
AcDbText
 10
367.236589
 20
0.792069
 30
0.0
 40
1.25
  1
日
 72
     1
 11
367.819922
 21
0.792069
 31
0.0
100
AcDbText
  0
TEXT
  5
3A9
100
AcDbEntity
  8
ADM
100
AcDbText
 10
369.611859
 20
1.728182
 30
0.0
 40
2.5
  1
A-152-03
 41
0.7
 72
     1
 11
376.611859
 21
1.728182
 31
0.0
100
AcDbText
  0
TEXT
  5
3AA
100
AcDbEntity
  8
ADM
100
AcDbText
 10
340.979035
 20
9.232009
 30
0.0
 40
2.25
  1
樋口
 41
0.8
 72
     1
 11
342.839035
 21
9.232009
 31
0.0
100
AcDbText
  0
TEXT
  5
3AB
100
AcDbEntity
  8
ADM
100
AcDbText
 10
327.124406
 20
9.53532
 30
0.0
 40
2.0
  1
A3  1/1
 41
0.8
 72
     1
 11
331.589168
 21
9.53532
 31
0.0
100
AcDbText
  0
TEXT
  5
3AC
100
AcDbEntity
  8
ADM
100
AcDbText
 10
354.372697
 20
8.837169
 30
0.0
 40
1.5
  1
S59
 41
0.8
100
AcDbText
  0
TEXT
  5
3AD
100
AcDbEntity
  8
ADM
100
AcDbText
 10
358.086359
 20
8.792069
 30
0.0
 40
1.25
  1
年
 72
     1
 11
358.669692
 21
8.792069
 31
0.0
100
AcDbText
  0
TEXT
  5
3AE
100
AcDbEntity
  8
ADM
100
AcDbText
 10
358.086359
 20
8.792069
 30
0.0
 40
1.25
  1
年
 72
     1
 11
358.669692
 21
8.792069
 31
0.0
100
AcDbText
  0
TEXT
  5
3AF
100
AcDbEntity
  8
ADM
100
AcDbText
 10
364.43496
 20
8.837169
 30
0.0
 40
1.5
  1
18
 41
0.8
 72
     1
 11
365.663531
 21
8.837169
 31
0.0
100
AcDbText
  0
TEXT
  5
3B0
100
AcDbEntity
  8
ADM
100
AcDbText
 10
360.303647
 20
8.837169
 30
0.0
 40
1.5
  1
5
 41
0.8
 72
     1
 11
360.875075
 21
8.837169
 31
0.0
100
AcDbText
  0
TEXT
  5
3B1
100
AcDbEntity
  8
ADM
100
AcDbText
 10
362.562868
 20
8.792069
 30
0.0
 40
1.25
  1
月
 72
     1
 11
363.062868
 21
8.792069
 31
0.0
100
AcDbText
  0
TEXT
  5
3B2
100
AcDbEntity
  8
ADM
100
AcDbText
 10
367.236589
 20
8.792069
 30
0.0
 40
1.25
  1
日
 72
     1
 11
367.819922
 21
8.792069
 31
0.0
100
AcDbText
  0
ENDSEC
  0
SECTION
  2
OBJECTS
  0
DICTIONARY
  5
1E
102
{ACAD_XDICTIONARY
360
1F
102
}
100
AcDbDictionary
  3
ACAD_GROUP
350
1C
  3
ACAD_MLINESTYLE
350
1D
  0
DICTIONARY
  5
18A
100
AcDbDictionary
280
     1
  3
ACAD_XREC_ROUNDTRIP
360
18B
  0
DICTIONARY
  5
23
100
AcDbDictionary
280
     1
  3
ACAD_XREC_ROUNDTRIP
360
24
  0
DICTIONARY
  5
3
100
AcDbDictionary
280
     1
  3
ACAD_LAYOUTSELFREF
360
4
  0
DICTIONARY
  5
A
100
AcDbDictionary
280
     1
  3
ACAD_LAYOUTSELFREF
360
B
  0
DICTIONARY
  5
1F
100
AcDbDictionary
280
     1
  3
ACAD_XREC_ROUNDTRIP
360
20
  0
DICTIONARY
  5
1C
102
{ACAD_REACTORS
330
1E
102
}
100
AcDbDictionary
  0
DICTIONARY
  5
1D
102
{ACAD_REACTORS
330
1E
102
}
100
AcDbDictionary
  3
STANDARD
350
21
  0
XRECORD
  5
18B
102
{ACAD_REACTORS
330
18A
102
}
100
AcDbXrecord
102
PLOTBIT
280
     0
  0
XRECORD
  5
24
102
{ACAD_REACTORS
330
23
102
}
100
AcDbXrecord
102
ACADR14ROUNDTRIP
1000
DSTYLE
1002
{
1070
   279
 70
     2
1002
}
  0
XRECORD
  5
4
102
{ACAD_REACTORS
330
3
102
}
100
AcDbXrecord
340
2
  0
XRECORD
  5
B
102
{ACAD_REACTORS
330
A
102
}
100
AcDbXrecord
340
9
  0
XRECORD
  5
20
102
{ACAD_REACTORS
330
1F
102
}
100
AcDbXrecord
102
EXTNAMES
  1
ACADDIM
  2
AcadDim
  1
ACDBVARIABLEDICTIONARY
  2
AcDbVariableDictionary
  0
MLINESTYLE
  5
21
102
{ACAD_REACTORS
330
1D
102
}
100
AcDbMlineStyle
  2
STANDARD
 70
     0
  3

 62
   256
 51
90.0
 52
90.0
 71
     2
 49
0.5
 62
   256
  6
BYLAYER
 49
-0.5
 62
   256
  6
BYLAYER
  0
ENDSEC
  0
EOF
